Oops, an error
Loading. Please wait.

Can I Play With Madness tab

version 3
version 3
2,804 views 6 this week
2 commentsread comments
1 2 3 4 5
x 3
add to favorites
×
Save as Personal and add changes to this tab that will be seen only by you. Learn more ›
×
You can save this tab as Personal to edit and correct it or add notes. All changes will be seen only by you. Learn more »
launch autoscroll
font size
0
reset
how to read this tab
guitar tuner
backing track
0:00
0:00
edit
Autoscroll
slow
fast
+/-
esc
set tempo
stop
Author
Iron Maiden
Song:Can I Play With Madness
Album:Seventh Son Of A Seventh Son
Tabber:Maidenrulz19
Tuning:EADGBE (low to high)

Gtr I (E A D G B E) - 'Dave Murray - dist electric'
Gtr II (E A D G B E) - 'Adrian Smith - dist electric'

 Intro
  Q=136
 4/4
  Gtr I
  Wx2            W
|------------||----------------------------------|
|------------||o-3-------------------------------|
|------------||--2-------------------------------|
|------------||--0-------------------------------|
|------------||o---------------------------------|
|------------||----------------------------------|
|
| Gtr II
|                PM-------------------------------
| Wx2            S S S S S S S S S S S S S S S S
|------------||----------------------------------|
|------------||o---------------------------------|
|------------||----------------------------------|
|------------||--0-0-0-0-0-0-0-0-0-0-0-0-0-0-0-0-|
|------------||o---------------------------------|
|------------||----------------------------------|


  H               H
|-----------------3---------------|
|-1---------------3---------------|
|-0---------------0---------------|
|-x---------------x---------------|
|-3---------------3---------------|
|---------------------------------|
|
|-------------------------------|
| S S S S S S S S S S S S S S S S
|---------------------------------|
|---------------------------------|
|---------------------------------|
|-0-0-0-0-0-0-0-0-0-0-0-0-0-0-0-0-|
|---------------------------------|
|---------------------------------|


  W                                 E   E   S E.     E   S S +S  S E
|-3-------------------------------|-----3---3-2------3---3-2-(2)-2-3----||
|-3-------------------------------|-----3---3-3------3---3-3-(3)-3-3---o||
|-0-------------------------------|-----2---2-2------2---2-2-(2)-2-2----||
|-0-------------------------------|-----0---0-0------0---0-0-(0)-0-0----||
|-x-------------------------------|------------------------------------o||
|-3-------------------------------|-------------------------------------||
|
| PM-----------------------------------------------------------------|
| S S S S S S S S S S S S S S S S   S S S S S S  S S S S S S  S  S S S
|---------------------------------|-------------------------------------||
|---------------------------------|------------------------------------o||
|---------------------------------|-------------------------------------||
|-0-0-0-0-0-0-0-0-0-0-0-0-0-0-0-0-|-0-0-0-0-0-0--0-0-0-0-0-0--0--0-0-0--||
|---------------------------------|------------------------------------o||
|---------------------------------|-------------------------------------||


   Verse
     Q       Q       H                  Q       Q       H
||-----------------------------------|-----------------------------------|
||o-^3-------------------------------|-^1--------------------------------|
||--^2-------------------------------|-^0--------------------------------|
||--^0-------------------------------|-^x--------------------------------|
||o----------------------------------|-^3--------------------------------|
||-----------------------------------|-----------------------------------|
|
|    PM---------------------------------------------------------------|
|    S S S S S S S S S S S S S S S S    S S S S S S S S S S S S S S S S
||-----------------------------------|-----------------------------------|
||o----------------------------------|-----------------------------------|
||-----------------------------------|-----------------------------------|
||---0-0-0-0-0-0-0-0-0-0-0-0-0-0-0-0-|--0-0-0-0-0-0-0-0-0-0-0-0-0-0-0-0--|
||o----------------------------------|-----------------------------------|
||-----------------------------------|-----------------------------------|
|-Rhy Fig 1 (both Gtrs)

  Q       Q       H                 E   E   S E.     E   S S +S  S E
|-3-------------------------------|-----3---3-2------3---3-2-(2)-2-3---|
|-3-------------------------------|-----3---3-3------3---3-3-(3)-3-3---|
|-0-------------------------------|-----2---2-2------2---2-2-(2)-2-2---|
|-0-------------------------------|-----0---0-0------0---0-0-(0)-0-0---|
|-x-------------------------------|------------------------------------|
|-3-------------------------------|------------------------------------|
|
| PM-----------------------------------------------------------------|
| S S S S S S S S S S S S S S S S   S S S S S S  S S S S S S  S  S S S
|---------------------------------|------------------------------------|
|---------------------------------|------------------------------------|
|---------------------------------|------------------------------------|
|-0-0-0-0-0-0-0-0-0-0-0-0-0-0-0-0-|-0-0-0-0-0-0--0-0-0-0-0-0--0--0-0-0-|
|---------------------------------|------------------------------------|
|---------------------------------|------------------------------------|
                                                         end Rhy Fig 1-|

Rhy Fig 1 x3

Rhy Fig 1 - 1st 3 bars only


  Gtrs I, II
  Q.   E +Q   Q    +E  E +Q   Q  Q
|----------------|------------------||
|-3-----------3--|-(3)--------3-----||
|-2----2-(2)--2--|-(2)-2-(2)--2--2--||
|-0----2-(2)--0--|-(0)-2-(2)--0--2--||
|------0-(0)-----|-----0-(0)-----0--||
|----------------|------------------||


 Chorus

  +E  E E E  E  E E E    E  E E E  E  E E E
|------------0----2---|------------0----2---|
|-------3-------------|-------3-------------|
|-(2)-2---2-----2-----|-----2---2-----2-----|
|---------------------|-------------------0-|
|--2--------(2)-------|---------------------|
|-------------------3-|-(3)-------(3)-------|
   H        +Q.     E   +H        +Q.     E

$
   E  E E E  E  E E E   +E  E E E  E  E E E
|------------0----2-0-|-(0)-----------------|
|-------3-------------|-------3p2--0--------|
|-----2---2-----2-----|-----2---------2-----|
|-(0)-------(0)-------|-----------------4---|
|---------------------|--0--------(0)-----2-|
|---------------------|---------------------|
  +H        +H           H        +Q.     E


   E  E E E  E  E E E    E  E E E  E  E E E
|------------0----2---|------------0----2---|
|-------3-------------|-------3-------------|
|-----2---2-----2-----|-----2---2-----2---2-|
|---------------------|---------------------|
|-(2)-------(2)-------|---------------------|
|-------------------3-|-(3)-------(3)-------|
  +H        +Q.     E   +H        +H


  +E  E E E  E  E E E   +E  E E E E E E E
|-----0---------0-----|-------------------||
|-------0-------------|-------------------||
|-(2)-----1--2----2-1-|-(1)-------2-4-2-2-||
|---------------------|-----2-4-5---------||
|---------------------|-------------------||
|--0--------(0)-------|-------------------||
   H        +H


  +E  E E E  E  E E E    E  E E E  E  E E E
|------------0----2---|------------0----2---|
|-------3-------------|-------3-------------|
|-(2)-2---2-----2-----|-----2---2-----2-----|
|---------------------|-------------------0-|
|--2--------(2)-------|---------------------|
|-------------------3-|-(3)-------(3)-------|
   H        +Q.     E   +H        +Q.     E


   E  E E E  E  E E E   +E  E E E  E  E E E
|------------0----2-0-|-(0)-----------------|
|-------3-------------|-------3p2--0--------|
|-----2---2-----2-----|-----2---------2-----|
|-(0)-------(0)-------|-----------------4---|
|---------------------|--0--------(0)-----2-|
|---------------------|---------------------|
  +H        +H           H        +Q.     E


                                                                  To Coda-|
  E E E E  E  E E E   E E E E E E E E   Q.   E +Q   Q    +E  E +Q   Q  Q
|----------0----2---|---------0---2---|----------------|------------------||
|-----3-------------|-----3-----------|-3-----------3--|-(3)--------3-----||
|---2---2-----2-----|---2---2---2---2-|-2----2-(2)--2--|-(2)-2-(2)--2--2--||
|-------------------|-----------------|-0----2-(2)--0--|-(0)-2-(2)--0--2--||
|-2-------(2)-------|-----------------|------0-(0)-----|-----0-(0)-----0--||
|-----------------3-|-3---------------|----------------|------------------||
  H       +Q.     E

  _____________
 |1.

                  ---||
                  --o||
Rhy Fig 1 x2      ---||
                  ---||
                  --o||
                  ---||



   Guitar Break
  Q=188
    __________
   |2.
    a Q  E E E E E E   +W           a Q  E E E E E E   +Q.   E +H
||-------------------|------------|------------------|-----------------||
||o------------------|------------|------------------|----------------o||
||-------------------|------------|------------------|-----------------||
||-------------------|------------|------------------|-----------------||
||o-5s7--7-7-7-5---5-|-(5)--------|-5s7--7-7-7-5---5-|-(5)---7-(7)----o||
||---------------7-3-|-(3)--------|--------------7-3-|-(3)---5-(5)-----||
 |-Riff 1                                                   end Riff 1-|

    a Q  E E E E E E   +W           a Q  E E E E E E   +Q.   E +H
||-------------------|------------|------------------|-----------------||
||o------------------|------------|------------------|----------------o||
||-------------------|------------|------------------|-----------------||
||--4s5--5-5-5p4p0-3-|-(3)--------|-4s5--5-5-5p4p0-3-|-(3)---5-(5)-----||
||o----------------1-|-(1)--------|----------------1-|-(1)---3-(3)----o||
||-------------------|------------|------------------|-----------------||


 Guitar Solo
  Gtr I w/Riff 1 x2

  Gtr II
   a     +Q    E  E      +H           +Q.    +E   +E      +E   E  a      +E
|----------------------------------|----------------------------------------
|-------------20-------------------|----------------------------20b22==(22)-
|-19b21-(19)-----19b21==(19)-------|-(19)r==(19)-(19)b21r(19)-16------------
|----------------------------------|----------------------------------------
|----------------------------------|----------------------------------------
|----------------------------------|----------------------------------------


     +H        +E   +E      +E   E        +H.            E  E
|--------------------------------------|-----------------------|
|---(22)r=====(20)-(20)b22r(20)-20b22==|=(22)r\----------------|
|--------------------------------------|-----------------------|
|--------------------------------------|-------------------/7--|
|--------------------------------------|-----------------------|
|--------------------------------------|-----------------------|


    +H         E   +S  S E E   +E    +S  S E S +S    +Q.     E
|----------------------------|---------------------------------|
|----------------------------|---------------------------------|
|----------------------------|---------------------------------|
|---(7)b9r=====7b9r(7)p5-7-7-|-(7)b9r(7)p5-7-7-(7)b9r(7)---/14-|
|----------------------------|---------------------------------|
|----------------------------|---------------------------------|


     E  E  E     S  S  E  E  E  a      +E     +H.            Q
|------------------------------------------|-------------------||
|---------------------------15-15b17==(17)-|-(17)r\------------||
|---12-14-14b16r14p12-14p12----------------|-------------------||
|------------------------------------------|-------------------||
|------------------------------------------|-------------------||
|------------------------------------------|-------------------||


  Gtrs I, II
                                                                    \7
                       |--3--|
  Q  Q  E   E  E  E    E  E  E  E  E  Q       +Q      Q  Q  H      +W
|-------------------|-------------------------------|------------|--------|
|-------------------|-------------------------------|------------|--------|
|-------------15-17-|-18p17p15-17-17-15b18===(18)r--|-------3----|-(3)----|
|-5--5----/17-------|-------------------------------|-5--5--3----|-(3)----|
|-5--5--------------|-------------------------------|-5--5--1----|-(1)----|
|-3--3--------------|-------------------------------|-3--3-------|--------|


  Q  Q   H        Q.   E +Q   Q    +E  E +Q   Q  Q
|--------------||----------------|------------------|
|--------------||-3-----------3--|-(3)--------3-----|
|--------------||-2----2-(2)--2--|-(2)-2-(2)--2--2--|
|-5--5--17\----||-0----2-(2)--0--|-(0)-2-(2)--0--2--|
|-5--5--17\----||------0-(0)-----|-----0-(0)-----0--|
|-3--3---------||----------------|------------------|


  A Tempo Q=136
D.S. al Coda -|
               |-&
  N.C.           N.C.
  W              W
|-------------||----------*|
|-------------||----------*|
|-------------||----------*|
|-------------||----------*|
|-------------||----------*|
|-------------||----------*|

this song for me is one of the easyist maiden songs ever hope you can learn it

            
            
Suggest correction
Creating personal tab
Creating personal tab
You can edit any tab online and save it as your Personal.

You can edit, replace or remove any tab part or add personal notes – all changes will be seen only by you.

Personal tabs can be accessed anytime from any device, even offline.
Learn more »
Give kudos to tab author, rate the tab!
1 2 3 4 5
comments
print report bad tab
2 comments total.
0 reply
Donkey Fly 2,626 Jul 03, 2006 06:27 AM

This is just the Power Tab Exported into ASCII
NOT YOUR TAB

0 reply
GuitarHero_jp 2,118 Sep 06, 2008 06:19 AM

that dosnt matter. as long as he gives the origional tabber credit

guest
You may want to rate the tab now too:
select rating
Wanna post a correction for this tab? Suggest correction