Oops, an error
Loading. Please wait.

Childhoods End Bass

version 2
version 2

Whole song

Interactive

198 views 1 this week
no commentswrite comment
1 2 3 4 5
3 more votes to show rating
add to favorites
×
Save as Personal and add changes to this tab that will be seen only by you. Learn more ›
×
You can save this tab as Personal to edit and correct it or add notes. All changes will be seen only by you. Learn more »
save as personal
new!
launch autoscroll
font size
0
reset
guitar tuner
Autoscroll
slow
fast
+/-
esc
set tempo
stop
Author
Difficulty
intermediate
-------------------------------------------------------------------------------
                             Childhood's End - Iron Maiden
-------------------------------------------------------------------------------
Tabbed by: Nacho Ramos
E-mail: nacho.rock.cabj@gmail.com

Tuning: Standard (EADG)

Intro 1
G:11--------7--------9--------4----6-----------------------------------------|
D:11--------7--------9--------4----6-----------------------------------------|
A:9---------5--------7--------2----4-----------------------------------------|
E:---------------------------------------------------------------------------|

Intro 2 x2
G:---------------------------------------------------------------------------|
D:---------------------------------------------------------------------------|
A:99999-99999-99999-99999----------------------------------------------------|
E:-------------------------55555-55555-55555-55555---------------------------|

G|---------------------------------------------------------------------------|
D|---------------------------------------------------------------------------|
A|77777-77777-77777-77777----------------------------------------------------|
E|-------------------------33333-33333-55555-55555---------------------------|

Verse x2
G:---------------------------------------------------------------------------|
D:---------------------------------------------------------------------------|
A:---------------------------------------------------------------------------|
E:222222222222-2-2/-555555555555-5-5--000000000000-0-0--2222222/-5555555-----|

Chorus x2
G:---------------------------------------------------------------------------|
D:---------------------------------------------------------------------------|
A:99999-99999-99999-99999----------------------------------------------------|
E:-------------------------55555-55555-55555-55555---------------------------|

G|---------------------------------------------------------------------------|
D|---------------------------------------------------------------------------|
A|77777-77777-77777-77777----------------------------------------------------|
E|-------------------------33333-33333-55555-55555---------------------------|

Verse 2 x2
G:---------------------------------------------------------------------------|
D:---------------------------------------------------------------------------|
A:---------------------------------------------------------------------------|
E:222222222222-2-2/-555555555555-5-5--000000000000-0-0--2222222/-5555555-----|

Chorus 2 x2
G:---------------------------------------------------------------------------|
D:---------------------------------------------------------------------------|
A:99999-99999-99999-99999----------------------------------------------------|
E:-------------------------55555-55555-55555-55555---------------------------|

G|---------------------------------------------------------------------------|
D|---------------------------------------------------------------------------|
A|77777-77777-77777-77777----------------------------------------------------|
E|-------------------------33333-33333-55555-55555---------------------------|

Interlude (Faster rythm)
G:11------11-------7-------7-------9-------9-------4------6------------------|
D:11------11-------7-------7-------9-------9-------4------6------------------|
A:9-9999999--9999995-5555555-5555557-7777777-7777772-222224-44444------------|
E:---------------------------------------------------------------------------|
(This part twice)
G:11-------11-------7--------7--------9--------9----------------------2------|
D:11-------11-------7--------7--------9--------9-----------------24245-------|
A:9--9999999--9999995--5555555--5555557--7777777--7777772--024545------------|
E:---------------------------------------------------------------------------|

Guitar Solo (Play this as many times as needed)
G|11-------9--------7--------------------------------------------------------|
D|11-------9--------7--------------------------------------------------------|
A|9--9999--7--7777--5-555555--55555------------------------------------------|
E|---------------------------------------------------------------------------|

Interlude 2 x4
G:---------------------------------------------------------------------------|
D:---------------------------------------------------------------------------|
A:999999999999-9-9--------------------777777777777-7-7--2222222/-4444444-----|
E:------------------555555555555-5-5-----------------------------------------|

Verse 3 x2
G:---------------------------------------------------------------------------|
D:---------------------------------------------------------------------------|
A:---------------------------------------------------------------------------|
E:222222222222-2-2/-555555555555-5-5--000000000000-0-0--2222222/-5555555-----|

Chorus 3
G:---------------------------------------------------------------------------|
D:---------------------------------------------------------------------------|
A:99999-99999-99999-99999----------------------------------------------------|
E:-------------------------55555-55555-55555-55555---------------------------|

G|---------------------------------------------------------------------------|
D|---------------------------------------------------------------------------|
A|77777-77777-77777-77777----------------------------------------------------|
E|-------------------------33333-33333-55555-55555---------------------------|

G:---------------------------------------------------------------------------|
D:---------------------------------------------------------------------------|
A:99999-99999-99999-99999----------------------------------------------------|
E:-------------------------55555-55555-55555-55555---------------------------|

G|---------------------------------------------------------------------------|
D|---------------------------------------------------------------------------|
A|77777-77777-77777-77777----------------------------------------------------|
E|-------------------------3-3-5\--------------------------------------------|


| /  slide up
| \  slide down
| h  hammer-on
| p  pull-off
| ~  vibrato
| +  harmonic
| x  Mute note
===============================================================================
Suggest correction
Give kudos to tab author, rate the tab!
1 2 3 4 5
comments
print report bad tab
guest
You may want to rate the tab now too:
select rating
Wanna post a correction for this tab? Suggest correction