Oops, an error
Loading. Please wait.

Children Of The Damned Bass Tab

version 2
version 2

Whole song

8,266 views 33 this week
3 commentsread comments
1 2 3 4 5
accurate
x 5
add to favorites
launch autoscroll
font size
0
reset
guitar tuner
Tab Pro tools
  • play this tab
  • loop segment
  • change instrument
  • show fretboard
  • metronome
×
Best way to learn
"Children Of The Damned"
Autoscroll
slow
fast
+/-
esc
set tempo
stop
Contributor
h = hammer on
p = pull off
/ = slide up
\ = slide down


Riff A: play 4 times

G|------9-----------------------------------|
D|----9---9--5--0-4h5p4-0--0-0---3------5---|
A|-7---------------------------3---3--5---5-|
E|------------------------------------------|


Riff B: Play 1 time

G|-------------------------------7-----|
D|----------------------------5-7-7-5--|
A|-7--7-7--0-2-2-0-2-3--3-3--5-7-----5-|
E|-------------------------------------|

G|---------------------------------7-----|
D|-----------------------------5--7-7-5--|
A|-7--7-7--0-2-2-0-2-3--3-3--5---------5-|
E|---------------------------------------|

G|---------------------------------7---|
D|----------------------------5-5-7-7--|
A|-7--7-7--0-2-2-0-2-3--3-3--5-5-----5-|
E|-------------------------------------|

G|---------------------------------------|
D|---------------------------------------|
A|-7--7-7--0-2-2-0-2-3--3-3--5-5-0-0-----|
E|-----------------------------------3-2-|


Riff C: Play 2 times

G|---------------------------------------------------|
D|---------------------------------------------------|
A|-----7-7-7--0-2-2-0-2-3--3-3--5-5-5-5-0-0----------|
E|-0-0--------------------------------------3-2-0--0-|

G|-------------------------|--------------|
D|-------------------------|--------------|
A|-7-7-7--0-2-2-0-2-3--3-3-|-5-5--0-0-----|
E|-------------------------|----------3-2-|



Riff B (1x)


Riff C: 2x with alternate ending the second time through

		G|-----------|
		D|-7-5-4-----|
		A|-------5-7-|
		E|-----------|

Riff D: play 4 times

G|---------------------------------------------------------------|
D|---------------------------------------------------------------|
A|-7-777-777-777-777-777-777-770-5-555-555-555-555-555-555-550-3-|
E|---------------------------------------------------------------|

G|---------------------------------------------------------|
D|---------------------------------------------------------|
A|-333-333-330-5-555-555-550-7-777-777-777-777-777-777-5-7-|
E|---------------------------------------------------------|


Riff E: play 4 times with correct endings

G|---------------------------------------------------------------|
D|---------------------------------------------------------------|
A|-7--7-7-7-7-7-7-7-7-7-7-7-7-7-0-2--2-2-2-2-2-2-2-2-2-2-2-2-2-0-|
E|---------------------------------------------------------------|

                                                          1. 3.       2. 4.
G|------------------------------------------------|------------|-----------|
D|------------------------------------------------|------------|-----------|
A|-3--3-3-3-3-3-3-0-5--5-5-5-5-5-5-0--------------|-7-7--5-5-0-|-7777-555-0|
E|-----------------------------------0--0-0-0-0-0-|------------|-----------|


Riff F: play 4 times

G|-------------------------------------------------------------|
D|-------------------------------------------------------------|
A|-7-777-777-777-777-777-777-770-5-555-555-555-555-555-555-550-|
E|-------------------------------------------------------------|

G|-------------------------------------------------------------|
D|-------------------------------------------------------------|
A|-3-333-333-333-333-333-333-330-5-555-555-555-555-555-555-550-|
E|-------------------------------------------------------------|


Ending:

G|--------------------------|
D|--------------------------|
A|-7-5-----7-7777777777----7|
E|-----3-5------------------|


That's it.  Have fun and Good luck
comments
print report bad tab
3 comments total.
0 reply
heavyinmind wrote on May 20 2008, 05:13 pm

I think that the tab is right i dont know and it sounds good.
Keep working like that.

0 reply
heavyinmind wrote on May 20 2008, 05:13 pm

I think that the tab is right i dont know and it sounds good.
Keep working like that.

0 reply
parr3001 wrote on November 28 2014, 05:56 am

Looks and sounds good to me, cheers!

I want to post or [tab]
guest
You may want to rate the tab now too:
select rating
Please do not post tabs as comments. Select "correction" instead!