Oops, an error
Loading. Please wait.

Dance Of Death Tab

version 3
version 3
5,514 views 3 this week
1 commentread comment
1 2 3 4 5
x 7
add to favorites
×
Save as Personal and add changes to this tab that will be seen only by you. Learn more ›
×
You can save this tab as Personal to edit and correct it or add notes. All changes will be seen only by you. Learn more »
save as personal
new!
launch autoscroll
font size
0
reset
how to read this tab
guitar tuner
backing track
0:00
0:00
Autoscroll
slow
fast
+/-
esc
set tempo
stop
Author
Dance of death by Iron Maiden

Intro 1 (Gitarre 1)
e|-----------------------------------------------------------------------------|
B|-----------------------------------------------------------------------------|
G|-----------------------------------------------------------------------------|
D|----9---9------12--12-------7---7-------5---5-------5---5-------7---7--------|
A|--7---7---7---9---9---9---5---5---5---3---3---3---3---3---3---5---5---5------|
E|-----------------------------------------------------------------------------|

e|------------------------|            
B|------------------------|            
G|------------------------|           
D|----9---9-------9---9---|
A|--7---7---7---7---7---7-|
E|------------------------|

Intro 2 (Gitarre 1)
e|-----------------------------------------------------------------------------|
B|-----------------------------------------------------------------------------|
G|-----------------------------------------------------------------------------|
D|----9---9------12--12-------7---7-------2---2-------5---5-------7---7--------|
A|--7---7---7---9---9---9---5---5---5---0---0---0---3---3---3---5---5---5------|
E|-----------------------------------------------------------------------------|

(Gitarre 2)
e|---------------------------------------------------7-7-----------------------|
B|-----------------7--------8--10--8--------9-------------10------8---7---9----|
G|------9----------------------------------------------------------------------|
D|-----------------------------------------------------------------------------|
A|-----------------------------------------------------------------------------|
E|-----------------------------------------------------------------------------|

(Gitarre 1)
e|------------------------|            
B|------------------------|            
G|------------------------|           
D|----9---9-------9---9---|
A|--7---7---7---7---7---7-|
E|------------------------|


(Gitarre 1)
e|-----------------------------------------------------------------------------|
B|-----------------------------------------------------------------------------|
G|-----------------------------------------------------------------------------|
D|----9---9------12--12-------7---7-------2---2-------5---5-------7---7--------|
A|--7---7---7---9---9---9---5---5---5---0---0---0---3---3---3---5---5---5------|
E|-----------------------------------------------------------------------------|

(Gitarre 2)
e|--7-7-10-----7--------------------------------------7-7-10-------------------|
B|----------------10---------8-10-8---------9---------------------8--7---------|
G|-------------------------------------------------------------------------9---|
D|-----------------------------------------------------------------------------|
A|-----------------------------------------------------------------------------|
E|-----------------------------------------------------------------------------|

(Gitarre 1)
e|------------------------|            
B|------------------------|            
G|------------------------|           
D|----9---9-------9---9---|
A|--7---7---7---7---7---7-|
E|------------------------|


Verse 1 (Gitarre 1)
e|-----------------------------------------------------------------------------|
B|-----------------------------------------------------------------------------|
G|-----------------------------------------------------------------------------|
D|----9---9------12--12-------7---7-------5---5-------5---5-------7---7--------|
A|--7---7---7---9---9---9---5---5---5---3---3---3---3---3---3---5---5---5------|
E|-----------------------------------------------------------------------------|
   1.Let me tell you a story to chill the bones about  a things that I saw 
   2.One  night  wondering  in the  everglades I'd one drink but  no  more
   3.I was rambling, enjoying  the  right moonlight Gazing up at the Stars
   4.Not aware of the  presence  so  near  to  me  watching  my  everymore

e|------------------------|            
B|------------------------|            
G|------------------------|           
D|----9---9-------9---9---|
A|--7---7---7---7---7---7-|
E|------------------------|
   1. -
   2. -
   3. -
   4. -

Verse 2 (Gitarre 1)
e|-----------------------------------------------------------------------------|
B|-----------------------------------------------------------------------------|
G|-----------------------------------------------------------------------------|
D|-------------------------3----------5----------------3-----------------------|
A|-----2--------5----------1----------3----------------1--------------2--------|
E|-----0--------3-----------------------------------------------------0--------|
  1.Feeling scared and I fell to my knees as something rushed me from the trees
  2.Took   me  to  an  unholy place  And that is where I fell  from  grace
  3.Then they summoned me over to join in with them to the dance of the death
  4.Into the circle  of  fire I followed  them     into   the middle I was led

  (Gitarrre 1) 
e|------------------------|            
B|------------------------|            
G|------------------------|           
D|--2---------------------|
A|--0---------------------|

  (Gitarre 2) 
e|------------------------|            
B|------------------------|            
G|--9-7-------------------|           
D|------10-9-7--9-10--9~~~|
A|------------------------|
E|------------------------|

  1. -
  2. - 
  3. - 


Verse 3 (Gitarre 1)

E                     G           D         C              D          E  G D
As if time had stop still  I was numb with fear but still I wanted to go
And the place of the fire did not hurt upon me as I walked onto the coals
And I  felt I was  In  a  trance  and  my  spirit  was  lifted  from  me
And  if  only  someone  had  a  chance  To  witness what  happend  to  me 
And I danced and I pranced and I sang with them All had death in their eyes

E           G                 D             A    C         D            Em~~~~~
Lifeless figures they where undead all of them they had ascended from hell


Bridge (Gitarre 2)
        3 X
e|-----------------| |-----------------| |-----------------|
B|----7-8-7--------| |----7-7--7-7-7---| |----7-8-7--------|
G|--9-------9-7-9--| |--9--------------| |--9-------9-7-9--|
D|-----------------| |-----------------| |-----------------| 
A|-----------------| |-----------------| |-----------------|
E|-----------------| |-----------------| |-----------------|


e|----------------------7----------| |-------------------------------|\
B|----7-8-7---7-8--8-10---10-8-7-8-| |----7-8-7-----7----7-8-7-------| \
G|--9-------9----------------------| |--9-------9-7----9-------9-7-9-|  \  2 X
D|---------------------------------| |-------------------------------|  /
A|---------------------------------| |-------------------------------| /  
E|---------------------------------| |-------------------------------|/

        2 X
e|-----------------| |-----------------| |-----------------|\
B|----7-8-7--------| |----7-7--7-7-7---| |----7-8-7--------| \
G|--9-------9-7-9--| |--9--------------| |--9-------9-7-9--|  \  2 X
D|-----------------| |-----------------| |-----------------|  /
A|-----------------| |-----------------| |-----------------| /
E|-----------------| |-----------------| |-----------------|/

e|----------------------7----------| |-------------------------------|\
B|----7-8-7---7-8--8-10---10-8-7-8-| |----7-8-7-----7----7-8-7-------| \
G|--9-------9----------------------| |--9-------9-7----9-------9-7-9-|  \  2 X
D|---------------------------------| |-------------------------------|  /
A|---------------------------------| |-------------------------------| /  
E|---------------------------------| |-------------------------------|/



Chorus (Gitarre 1)

  E                     G                          D                  E

1.As I danced with the death my free spirit was loughing and howling down at me 
2.Until the time came to reunite us both my spirit came back down to me

(Gitarre 2)
e|----------------------|
B|----------------------|
G|----------------------|
D|--10-9-7----7---------|
A|---------10---10-9-7--|
E|----------------------|

  E                       G                      D                   E
1.Below my undead       body just danced the circle of            dead
2.I didn't know if I was alive or dead as others all joined in with me

(Gitarre 2
| C5 | B5 |


Bridge 2 (Gitarre 2)

        2 X
e|-----------------| |-----------------| |-----------------|\
B|----7-8-7--------| |----7-7--7-7-7---| |----7-8-7--------| \
G|--9-------9-7-9--| |--9--------------| |--9-------9-7-9--|  \  2 X
D|-----------------| |-----------------| |-----------------|  /
A|-----------------| |-----------------| |-----------------| /
E|-----------------| |-----------------| |-----------------|/

e|----------------------7----------| |-------------------------------|\
B|----7-8-7---7-8--8-10---10-8-7-8-| |----7-8-7-----7----7-8-7-------| \
G|--9-------9----------------------| |--9-------9-7----9-------9-7-9-|  \  2 X
D|---------------------------------| |-------------------------------|  /
A|---------------------------------| |-------------------------------| /  
E|---------------------------------| |-------------------------------|/





Verse 4 (Gitarre 2)


e|----------------------7----------| 
B|----7-8-7---7-8--8-10---10-8-7-8-| 
G|--9-------9----------------------| 
D|---------------------------------|
A|---------------------------------| 
E|---------------------------------| 

1.By luck then a skirmish  started and took the attention away from me
2.I ran like hell faster htan the wind but behind I did not glace

e|------------------------------------------|     
B|----7-8-7-----7----7-8-7------------------|   
G|--9-------9-7----9-------9-7-9------------|   
D|------------------------------------------|  
A|------------------------------------------| 
E|------------------------------------------|
 
1.When they took their gaze from me that was the moment that I fled
2.One thing that I did not dare was to look just straight ahead


Chorus 2 (Gitarre 1)

E                                 G                    D            E
When you know that your time has come around you'll be prepared for it


(Gitarre 2)
e|----------------------|
B|----------------------|
G|----------------------|
D|--10-9-7----7---------|
A|---------10---10-9-7--|
E|----------------------|

E                          G                   D               E
Say your last goodbyes to everyone drink and say a prayer for it

(Gitarre 2
| C5 | B5 |


Verse 5  (gitarre 2)    2 mal
 
e|-----------------|             |-----------------| 
B|----7-8-7--------|             |----7-8-7--------| 
G|--9-------9-7-9--|             |--9-------9-7-9--| 
D|-----------------|             |-----------------| 
A|-----------------|             |-----------------| 
E|-----------------|             |-----------------| 

When you'r lying in your sleep    When you lying in your bed 

|-----------------|                |-----------------|
|----7-7--7-7-7---|                |----7-8-7--------| 
|--9--------------|                |--9-------9-7-9--|  
|-----------------|                |-----------------|  
|-----------------|                |-----------------| 
|-----------------|                |-----------------|
And you wake up from your dreams    to go dancin with the dead



Harmony (Gitarre 2)    2 mal

        2 X
e|-----------------| |-----------------| |-----------------|\
B|----7-8-7--------| |----7-7--7-7-7---| |----7-8-7--------| \
G|--9-------9-7-9--| |--9--------------| |--9-------9-7-9--|  \  2 X
D|-----------------| |-----------------| |-----------------|  /
A|-----------------| |-----------------| |-----------------| /
E|-----------------| |-----------------| |-----------------|/

e|----------------------7----------| |-------------------------------|\
B|----7-8-7---7-8--8-10---10-8-7-8-| |----7-8-7-----7----7-8-7-------| \
G|--9-------9----------------------| |--9-------9-7----9-------9-7-9-|  \  2 X
D|---------------------------------| |-------------------------------|  /
A|---------------------------------| |-------------------------------| /  
E|---------------------------------| |-------------------------------|/


Ending

(Gitarre 2)

|D5 E5|  |G5 E5|  |D5  E5|


(Gitarre 1)

e|------------7--------|
B|----------8----------|
G|--------9---------8--|
D|------9--------9-----|
A|----7----------------|
E|--7------------------|
Suggest correction
comments
print report bad tab
1 comment total.
0 reply
Ozzman_Cometh 10 Feb 15, 2005 07:00 PM

THANK You..Someone knows how to play the song properly
except the intro...I'll give you a hint..the intro is played on the D-String. starts on fret 2

But overall...4.5..(if I can rate like that lol)

guest
You may want to rate the tab now too:
select rating
Wanna post a correction for this tab? Suggest correction