Oops, an error
Loading. Please wait.

Dance Of Death tab

version 4
version 4
4,495 views 3 this week
3 commentsread comments
1 2 3 4 5
x 6
add to favorites
×
Save as Personal and add changes to this tab that will be seen only by you. Learn more ›
×
You can save this tab as Personal to edit and correct it or add notes. All changes will be seen only by you. Learn more »
launch autoscroll
font size
0
reset
how to read this tab
guitar tuner
backing track
0:00
0:00
edit
Autoscroll
slow
fast
+/-
esc
set tempo
stop
Author
Intro:
Guitar 1
    E           G/F#        D
e|-------------------------------------|
B|-------------------------------------|
G|-------------------------------------|
D|----9---9------12--12-------7---7----|\
A|--7---7---7---9---9---9---5---5---5--| \
E|-------------------------------------|  \
    C           C           D              \
e|-------------------------------------|    \
B|-------------------------------------|     \
G|-------------------------------------|     2x
D|----5---5-------5---5-------7---7----|     /
A|--3---3---3---3---3---3---5---5---5--|    /
E|-------------------------------------|   /
    E           E                         /
e|-------------------------|             /
B|-------------------------|            /
G|-------------------------|           /
D|----9---9-------9---9----|__________/
A|--7---7---7---7---7---7--|
E|-------------------------|
    E           G/F#        D
e|-------------------------------------|
B|-------------------------------------|
G|-------------------------------------|
D|----9---9------12--12-------7---7----|
A|--7---7---7---9---9---9---5---5---5--|
E|-------------------------------------|
    A           C           D
e|-------------------------------------|
B|-------------------------------------|
G|-------------------------------------|
D|----2---2-------5---5-------7---7----|
A|--0---0---0---3---3---3---5---5---5--|
E|-------------------------------------|
    E           E
e|-------------------------|
B|-------------------------|
G|-------------------------|
D|----9---9-------9---9----|
A|--7---7---7---7---7---7--|
E|-------------------------|

Guitar 2
e|-----------------------7-7-----------------|
B|------7---8--10-8----------10--8-7---------|
G|--9----------------9---------------9-------|
D|-------------------------------------------|
A|-------------------------------------------|
E|-------------------------------------------|

e|--7-7-10--7-----------------7-7------------|
B|------------10--8--10-8---------10--8-7----|
G|------------------------9---------------9--|
D|-------------------------------------------|
A|-------------------------------------------|
E|-------------------------------------------|

Vers 1: 2x
Guitar 1
    E           G/F#        D
e|-------------------------------------|
B|-------------------------------------|
G|-------------------------------------|
D|----9---9------12--12-------7---7----|
A|--7---7---7---9---9---9---5---5---5--|
E|-------------------------------------|
    C           C           D
e|-------------------------------------|
B|-------------------------------------|
G|-------------------------------------|
D|----5---5-------5---5-------7---7----|
A|--3---3---3---3---3---3---5---5---5--|
E|-------------------------------------|
    E           E
e|-------------------------|
B|-------------------------|
G|-------------------------|
D|----9---9-------9---9----|
A|--7---7---7---7---7---7--|
E|-------------------------|
    E           G/F#        D
e|-------------------------------------|
B|-------------------------------------|
G|-------------------------------------|
D|----9---9------12--12-------7---7----|
A|--7---7---7---9---9---9---5---5---5--|
E|-------------------------------------|
    A           C           D
e|-------------------------------------|
B|-------------------------------------|
G|-------------------------------------|
D|----2---2-------5---5-------7---7----|
A|--0---0---0---3---3---3---5---5---5--|
E|-------------------------------------|
    E           E
e|-------------------------|
B|-------------------------|
G|-------------------------|
D|----9---9-------9---9----|
A|--7---7---7---7---7---7--|
E|-------------------------|

Vers 2: 2x
Guitar 1
| E5 | G5/F# | D5 | C5 |

| C5 | D5 | E5 | E5 |

| E5 | G5/F# | D5 | A5 |

| C5 | D5 | E5 | E5 |

Guitar 2
e|--------------------------------|
B|--------------------------------|
G|--(9)-(9)-9--7------------------|
D|---------------10-9-7-9-10-9~~--| 3x
A|--------------------------------|
E|--------------------------------|

Vers 3:
| E5 | G5/F# D5 | 2x
                        ___
| E5 | G5/F# | D5 | C5 |   \
                            \
| C5 | D5 | E5 | G5/F# D5 |  \
                             2x
| E5 | G5/F# | D5 | A5 |     /
                            /
| C5 | D5 | E5 | G5/F# D5 |/

| E5 | G5/F# | D5 | C5 |

| C5 | D5 | E5 | G5/F# D5 |

| E5 | G5/F# | D5 | A5 |

| C5 | D5 | Em |

Bridge:
e|-----------------|
B|----7-8-7--------|
G|--9-------9-7-9--|
D|-----------------| 3x
A|-----------------|
E|-----------------|

e|-----------------|
B|----7-7--7-7-7---|
G|--9--------------|
D|-----------------|
A|-----------------|
E|-----------------|

e|-----------------|
B|----7-8-7--------|
G|--9-------9-7-9--|
D|-----------------|
A|-----------------|
E|-----------------|

e|----------------------7------------|\
B|----7-8-7---7-8--8-10---10-8-7-8---| \
G|--9-------9------------------------|  \
D|-----------------------------------|   \
A|-----------------------------------|    \
E|-----------------------------------|     \
                                           2x
e|-----------------------------------|     /
B|----7-8-7-----7----7-8-7-----------|    /
G|--9-------9-7----9-------9-7-9-----|   /
D|-----------------------------------|  /
A|-----------------------------------| /
E|-----------------------------------|/

e|-----------------|\
B|----7-8-7--------| \
G|--9-------9-7-9--|  \
D|-----------------| 2x\
A|-----------------|    \
E|-----------------|     \
                          \
e|-----------------|       \
B|----7-7--7-7-7---|        \
G|--9--------------|        2x
D|-----------------|        /
A|-----------------|       /
E|-----------------|      /
                         /
e|-----------------|    /
B|----7-8-7--------|   /
G|--9-------9-7-9--|  /
D|-----------------| /
A|-----------------|/
E|-----------------|

e|----------------------7------------|\
B|----7-8-7---7-8--8-10---10-8-7-8---| \
G|--9-------9------------------------|  \
D|-----------------------------------|   \
A|-----------------------------------|    \
E|-----------------------------------|     \
                                           2x
e|-----------------------------------|     /
B|----7-8-7-----7----7-8-7-----------|    /
G|--9-------9-7----9-------9-7-9-----|   /
D|-----------------------------------|  /
A|-----------------------------------| /
E|-----------------------------------|/

Chorus:
Guitar 1
| E5 | G5 | D5 | E5 | 4x

Guitar 2
e|----------------------|
B|----------------------|
G|----------------------|
D|--10-9-7----7---------|
A|---------10---10-9-7--|
E|----------------------|

| C5 | B5 |

e|----------------------|
B|----------------------|
G|----------------------|
D|--10-9-7----7---------|
A|---------10---10-9-7--|
E|----------------------|

| C5 | B5 |

Bridge 2: 2x
e|-----------------|\
B|----7-8-7--------| \
G|--9-------9-7-9--|  \
D|-----------------| 2x\
A|-----------------|    \
E|-----------------|     \
                          \
e|-----------------|       \
B|----7-7--7-7-7---|        \
G|--9--------------|        2x
D|-----------------|        /
A|-----------------|       /
E|-----------------|      /
                         /
e|-----------------|    /
B|----7-8-7--------|   /
G|--9-------9-7-9--|  /
D|-----------------| /
A|-----------------|/
E|-----------------|

e|----------------------7------------|\
B|----7-8-7---7-8--8-10---10-8-7-8---| \
G|--9-------9------------------------|  \
D|-----------------------------------|   \
A|-----------------------------------|    \
E|-----------------------------------|     \
                                           2x
e|-----------------------------------|     /
B|----7-8-7-----7----7-8-7-----------|    /
G|--9-------9-7----9-------9-7-9-----|   /
D|-----------------------------------|  /
A|-----------------------------------| /
E|-----------------------------------|/

Solo:

(Chorus)

| F#5 | D5 | E5 | F#5 | 6x

| E5 | G5 | D5 | E5 | 10x

(Bridge 2) 3x

| D5 E5 | G5 E5 | D5 E5 |

Outro:

(Intro)

    E           G/F#        D
e|-------------------------------------|
B|-------------------------------------|
G|-------------------------------------|
D|----9---9------12--12-------7---7----|
A|--7---7---7---9---9---9---5---5---5--|
E|-------------------------------------|
    C           C           D
e|-------------------------------------|
B|-------------------------------------|
G|-------------------------------------|
D|----5---5-------5---5-------7---7----|
A|--3---3---3---3---3---3---5---5---5--|
E|-------------------------------------|
    E           E
e|-------------------------|
B|-------------------------|
G|-------------------------|
D|----9---9-------9---9----|
A|--7---7---7---7---7---7--|
E|-------------------------|
    E           G/F#        D
e|-------------------------------------|
B|-------------------------------------|
G|-------------------------------------|
D|----9---9------12--12-------7---7----|
A|--7---7---7---9---9---9---5---5---5--|
E|-------------------------------------|
    A           C           D
e|-------------------------------------|
B|-------------------------------------|
G|-------------------------------------|
D|----2---2-------5---5-------7---7----|
A|--0---0---0---3---3---3---5---5---5--|
E|-------------------------------------|
    Em
e|------------7--------|
B|----------8----------|
G|--------9---------8--|
D|------9--------9-----|
A|----7----------------|
E|--7------------------|

            
            
Suggest correction
Creating personal tab
Creating personal tab
You can edit any tab online and save it as your Personal.

You can edit, replace or remove any tab part or add personal notes – all changes will be seen only by you.

Personal tabs can be accessed anytime from any device, even offline.
Learn more »
comments
print report bad tab
3 comments total.
0 reply
ginotech 62 Jan 14, 2006 05:14 AM

e|-------------------------------------|
B|-------------------------------------|
G|-------------------------------------|
D|----2---2-------5---5-------7---7----|
A|--0---0---0---3---3---3---5---5---5--|
E|-------------------------------------|

should be

e|-------------------------------------|
B|-------------------------------------|
G|-----2-------------------------------|
D|---2---2--------5---5-------7---7----|
A|-0-------0----3---3---3---5---5---5--|
E|-------------------------------------|

i think? otherwise i love the tab

0 reply
grnday 220 Jan 17, 2006 03:53 PM

even though theres no solo included this tab is right on,5 stars, o and ginotech, ur wrong

0 reply
[FrozEn] 174 Feb 18, 2006 01:19 PM

nah, ginotech isnt wrong, listen really closely. His version is right, i figured that out for myself.

If you tabbed the chords during the chorus etc. itd be really helpful, but apart from that - Very nice job, 5 stars.

guest
You may want to rate the tab now too:
select rating
Wanna post a correction for this tab? Suggest correction