Oops, an error
Loading. Please wait.
We have an official Fear Of The Dark tab made by UG professional guitarists. Check out the tab »
×
86,549 views 90 this week
20 commentsread comments
1 2 3 4 5
x 45
add to favorites
launch autoscroll
font size
0
reset
guitar tuner
backing track
0:00
0:00
Autoscroll
slow
fast
+/-
esc
set tempo
stop
Fear of the Dark (Harris)
(From the album "Fear of the Dark")

G|-7-----5-----7-----5-----------12-----------10-----12--|----7---7---7---7----|
D|-7-----5-----7-----5-----7-----10-----7------8-----10--|.--------------------|
A|-5-----3-----5-----3-----7-----10-----7------8-----10--|.-5---5---5---5------|
E|-------------------------5------------5----------------|---------------------|

[Intro]

G|---3---3---3---3----5---5---5---5-----3---3----5---5----7---7---7---7----3---|
D|-----------------------------------------------------------------------------|
A|-1---1---1---1----3---3---3---3-----1---1----3---3----5---5---5---5----1-----|
E|-----------------------------------------------------------------------------|

G|---3---3---3-----5---5---5---5---5---5---5---5---|----7---7---7---7----3---3-|
D|------------------------------------------------.|---------------------------|
A|-1---1---1-----3---3---3---3---3---3---3---3----.|--5---5---5---5----1---1---|
E|-------------------------------------------------|---------------------------|
                                                   Vocals enter

G|--3---3----5---5---5---5----3---3---5---5-----7---7---7---7----3---3---3---3-|
D|-----------------------------------------------------------------------------|
A|1---1----3---3---3---3----1---1---3---3-----5---5---5---5----1---1---1---1---|
E|-----------------------------------------------------------------------------|

G|---5---5---5---5----3---3---5---5-----7---7---7---7-----3---3---3---3----5---|
D|-----------------------------------------------------------------------------|
A|-3---3---3---3----1---1---3---3-----5---5---5---5-----1---1---1---1----3---3-|
E|-----------------------------------------------------------------------------|

G|-5---5---5-----5---5----7---7----7---7---7---7-----3---3---3---3------5---5--|
D|-------------3---3----5---5--------------------------------------------------|
A|---3---3-----------------------5---5---5---5-----1---1---1---1-----3----3----|
E|-----------------------------------------------------------------------------|
       "...a little strange"

G|--5---5---5---5---5---5-----3---3---3---3----5---5---5---5----7---7---7---7--|
D|-----------------------------------------------------------------------------|
A|3---3---3---3---3---3-----1---1---1---1----3---3---3---3----5---5---5---5----|
E|-----------------------------------------------------------------------------|

G|---5---5---5---5-----3---3---3---3------5---5---7---7-----7---7---7---7---7--|
D|--------------------------------------3---3---5---5--------------------------|
A|-3---3---3---3-----1---1---1---1------------------------5---5---5---5---5----|
E|-----------------------------------------------------------------------------|

G|---7---7---7----3---3---3---3-----5---5---5---5-----7---7---7---7----5---5---|
D|-----------------------------------------------------------------------------|
A|-5---5---5----1---1---1---1-----3---3---3---3-----5---5---5---5----3---3---3-|
E|-----------------------------------------------------------------------------|

G|-5---5-----3---3---3---3-----5---5---7---7-----7---7---7---7---7---7--------|
D|---------------------------3---3---5---5------------------------------------|
A|---3-----1---1---1---1-----------------------5---5---5---5---5---5---5------|
E|----------------------------------------------------------------------------|
                                                           End intro

G|-----------------------------------------------------------------------------|
D|-----------------------------------------------------------------------------|
A|-/5--5-0---5-5-0--5-5-0--5-5--0-1-1----1-1----1-1-----1-1----3-3-----3-3-----|
E|------------------------------------1------1------1--------1-----3--------3--|

Faster,heavier

G|-----------------------------------------------------------------------------|
D|-----------------------------------------------------------------------------|
A|-3-3------3-3----5--5-0-0-5-5-7-7-8-8-10-10-8-8-7-5---5-0----5-5-0----5-5-0--|
E|-----3---------3-------------------------------------------------------------|

G|-----------------------------------------------------------------------------|
D|-----------------------------------------------------------------------------|
A|-5-5--0--1--1------1-1-------1-1------1-1-----3---3------3-3-----3-3-----3-3-|
E|--------------1---------1--------1----------1-------3--------3-------3-------|

G|-----------------------------------------7-----------------------------------|
D|-----------------------------------------7-----------------------------------|
A|---5--5-0-0-5-5-7-7-8-8-10-10-8-8-7-5----5---5-5--5-5-5-5--5-5-5-5--5-5-5-5--|
E|-3---------------------------------------------------------------------------|

G|-3-----------------------------------5-----------------------------------7---|
D|-3-----------------------------------5-----------------------------------7---|
A|-1---1-1--1-1-1-1--1-1-1-1--1-1-1-1--3---3-3--3-3-3-3--3-3-3-3--3-3-3-3--5---|
E|-----------------------------------------------------------------------------|

G|------------------------7--------------------------------------------3-------|
D|------------------------7--------------------------------------------3-------|
A|-5-5--5-5-5-5--5-5-5-5--5---5-5--5-5-5-5--5-5-5-5--5-5-5-5--5-5-5-5--1---1-1-|
E|-----------------------------------------------------------------------------|

G|----------------------------5-----------------------------------7------------|
D|----------------------------5-----------------------------------7------------|
A|-1-1-1-1--1-1-1-1--1-1-1-1--3---3-3--3-3-3-3--3-3-3-3--3-3-3-3--5---5-5--5-5-|
E|-----------------------------------------------------------------------------|

G|-------------------------3-----------------5-----------------7----------------|
D|-------------------------3-----------------5-----------------7----------------|
A|-5-5--5-5-5-5--5-5-5-5---1---1-1--1-1-1-1--3---3-3--3-3-3-3--5---5-5--5-5-5-5-|
E|------------------------------------------------------------------------------|
                        "Fear of the dark..."

G|5-----------------3--------------------5-------7-------7-----------------3---|
D|5-----------------3--------------------3-------5-------7-----------------3---|
A|3---3-3--3-3-3-3--1---1-1--1-1-1-1---------------------5---5-5--5-5-5-5--1---|
E|-----------------------------------------------------------------------------|

G|---------------5------------------7-------------------5-----------------3----|
D|---------------5------------------7-------------------5-----------------3----|
A|-1-1--1-1-1-1--3---3-3--3-3-3-3---5---5-5--5-5-5-5----3---3-3--3-3-3-3--1----|
E|-----------------------------------------------------------------------------|

G|---5-----7-----7-------------------7-------------------3------------------5--|
D|---3-----5-----7-------------------7-------------------3------------------5--|
A|---------------5---5-5--5-5-5-5----5---5-5--5-5-5-5----1---1-1--1-1-1-1---3--|
E|-----------------------------------------------------------------------------|

G|-----------------7------5-----7------------------3------------------5--------|
D|-----------------7------5-----7------------------3------------------5--------|
A|-3-3--3-3-3-3----5------3-----5---5-5--5-5-5-5---1---1-1--1-1-1-1---3--3-3---|
E|-----------------------------------------------------------------------------|

G|------------------------------7------------------3------------------5--------|
D|------------------------------7------------------3------------------5--------|
A|-3-3-3-3--3-3-3-3--3-3-3-3----5---5-5--5-5-5-5---1---1-1--1-1-1-1---3---3-3--|
E|-----------------------------------------------------------------------------|

G|-----------5------7---7-------------------3-----------------5----------------|
D|-----------3------5---7-------------------3-----------------5----------------|
A|-3-3-3-3--------------5---5-5--5-5-5-5----1--1-1--1-1-1-1---3---3-3--3-3-3-3-|
E|-----------------------------------------------------------------------------|

G|---------------------3--------------5--------------7--------------5-----------|
D|---------------------3--------------5--------------7--------------5-----------|
A|--3-3-3-3--3-3-3-3---1--1-1-1--1-1--3--3-3-3--3-3--5--5-5-5--5-5--3--3-3-3--3-|
E|------------------------------------------------------------------------------|
                    Slower

G|-----3--------------5------7---7------------------------------3--------------|
D|-----3--------------3------5---7------------------------------3--------------|
A|-3---1--1-1-1--1-1-------------5--5-5-5--5-5-5--5-5-5--5-5----1--1-1-1--1-1--|
E|-----------------------------------------------------------------------------|

G|5---------------7---------------5---------------3---------------5------7---7-|
D|5---------------7---------------5---------------3---------------3------5---7-|
A|3--3-3-3--3-3---5--5-5-5--5-5---3--3-3-3--3-3---1--1-1-1--1-1--------------5-|
E|-----------------------------------------------------------------------------|

G|------------------------------------------------------------------------------|
D|------------------------------------------------------------------------------|
A|-5-5-5--5-5-5--5-5-5-5---5-5-0--5-5-0--5-5-0---5-5---0--1---1----1-1----1-1---|
E|--------------------------------------------------------------1------1------1-|
                         Faster

G|-----------------------------------------------------------------------------|
D|-----------------------------------------------------------------------------|
A|-1-1---3---3----3-3----3-3----3-3------5-5-0-0-5-5-7-7-8-8-10-10-8-8-7-5---5-|
E|-----1-------3------3------3------3------------------------------------------|

G|-----------------------------------------------------------------------------|
D|-----------------------------------------------------------------------------|
A|-0--5-5-0--5-5-0--5-5---0--1---1-----1-1----1-1----1-1------3---3----3-3-----|
E|---------------------------------1-------1------1--------1--------3------3---|

G|----------------------------------------------------7------------------------|
D|----------------------------------------------------7------------------------|
A|-3-3----3-3-----5-5-0-0-5-5-7-7-8-8-10-10-8-8-7-5---5--5-5-5---5-5-5---5-5-5-|
E|-----3------3----------------------------------------------------------------|
                                                    Much Slower

G|---------3---------------------------------------------3----5----7-----------|
D|---------3-------------------------------5-------------3----5----7-----------|
A|-5-5-5---1--1-1-1--1-1-1--1-1-1--1-1-1---5-------------1----3----5--5-5-5--5-|
E|-----------------------------------------3--3-3-3--3-3-----------------------|

G|---------------------------------------------------3-------------------------|
D|---------------------------------------------------3-------------------------|
A|-5-5---5-5-5---5-5--5--5-5-5--5-5-5--5-5-5--5-5-5--1--1-1-1--1-1-1--1-1-1----|
E|-----------------------------------------------------------------------------|

G|----------------------3-----5----7--------------------------------------------|
D|--------5-------------3-----5----7--------------------------------------------|
A|-1-1-1--5-------------1-----3----5--5-5-5--5-5-5--5-5-5--5-5--5--5-5-5--5-5-5-|
E|--------3--3-3-3--3-3---------------------------------------------------------|

G|----------------3----------------------------------------------------5-----7-|
D|----------------3-------------------------------5--------------------5-----7-|
A|-5-5-5--5-5-5---1--1-1-1--1-1-1--1-1-1--1-1-1---5--------------------3-----5-|
E|------------------------------------------------3--3-3-3--3-3-3--3-3---------|

G|-----------------------------------------------------------3------------------|
D|-----------------------------------------------------------3------------------|
A|-5-5-5--5-5-5--5-5-5--5-5--5--5-5-5--5-5-5--5-5-5--5-5-5---1--1-1-1--1-1-1--1-|
E|------------------------------------------------------------------------------|

G|-----------------------------------5-----7--------------------------|
D|--------------5--------------------5-----7--------------------.--.--|
A|-1-1--1-1-1---5--------------------3-----5--5-5-5--5-5-5--5-5-5--5--|
E|--------------3--3-3-3--3-3-3--3-3----------------------------------|


G|-7--------------------------7--------------------------3---------------5------|
D|-7-----------------------.--7-----------------------.--3---------------5------|
A|-5--5-5-5--5-5-5--5-5-5--5--5--5-5-5--5-5-5--5-5-5--5--1--1-1-1--1-1---3--3-3-|
E|------------------------------------------------------------------------------|
Guitar Solo

G|---------7--------------------------7--------------------------7-------------|
D|---------7-----------------------.--7-----------------------.--7-------------|
A|-3--3-3--5--5-5-5--5-5-5--5-5-5--5--5--5-5-5--5-5-5--5-5-5--5--5--5-5-5--5-5-|
E|-----------------------------------------------------------------------------|

G|----------------3--------------5--------------7---------------------------11-|
D|------------.---3--------------5--------------7-----------------------.---11-|
A|--5--5-5-5--5---1--1-1-1--1-1--3--3-3-3--3-3--5--5-5-5--5-5-5--5-5-5--5----9-|
E|-----------------------------------------------------------------------------|

G|-------------------------11-----------------------------7---------------9----|
D|----------------------.--11------------------------.----7---------------9----|
A|-9-9-9--9-9-9--9-9-9--9---9---9-9-9--9-9-9--9-9-9--9----5--5-5-5--5-5---7--7-|
E|-----------------------------------------------------------------------------|
Guitar solo 2

G|------------11---------------------------11---------------------------11------|
D|------------11-----------------------.---11-----------------------.---11------|
A|-7-7--7-7----9--9-9-9--9-9-9--9-9-9--9----9--9-9-9--9-9-9--9-9-9--9----9--9-9-|
E|------------------------------------------------------------------------------|

G|----------------------7--------------9--------------11-----------------------|
D|------------------.---7--------------9--------------11-----------------------|
A|-9--9-9-9--9-9-9--9---5--5-5-5--5-5--7--7-7-7--7-7---9--9-9-9--9-9-9--9-9-9--|
E|-----------------------------------------------------------------------------|

G|-----11--------------------------7----------------------------7---------------|
D|--.--11-----------------------.--7----------------------------7---------------|
A|--9---9--9-9-9--9-9-9--9-9-9--9--5--5-5-5--5-5-5--5-5-5--5-5--5--5-5-5--5-5-5-|
E|------------------------------------------------------------------------------|
                        End Solo

G|---------3-----------------------3-------------------------------------------|
D|---------3-----------------------3-----------------------5-------------------|
A|-5-5-5---1--1-1-1--1-1-1--1-1-1--1-1-1-1--1-1-1--1-1-1---5-------------------|
E|---------------------------------------------------------3-3-3--3-3-3--3-3-3-|

G|-3----------------------------7----------------------------------------------|
D|-3----------------------------7----------------------------------------------|
A|-1--1-1-1--1-1-1--1-1-1--1-1--5--5-5-5--5-5-5--5-5-5--5-5-5--5-5-5--5-5-5--5-|
E|-----------------------------------------------------------------------------|

G|------7----------------------------------------------------------3-----------|
D|------7----------------------------------------------------------3-----------|
A|-5-5--5-5-5-5--5-5-5--5-5-5--5-5-5--5-5-5--5-5-5--5-5-5--5-5-5---1--1-1-1--1-|
E|-----------------------------------------------------------------------------|
    "Fear of the Dark..."

G|---------------------------------------------------------------------------3-|
D|-----------------------------------------------5---------------------------3-|
A|-1-1--1-1-1--1-1-1--1-1-1--1-1-1--1-1-1--1-1---5---------------------------1-|
E|-----------------------------------------------3--3-3-3--3-3-3--3-3-3--3-3---|

G|---------------------------7--------------------------------------------------|
D|---------------------------7--------------------------------------------------|
A|-1-1-1--1-1-1--1-1-1--1-1--5--5-5-5--5-5-5--5-5-5--5-5-5--5-5-5--5-5-5--5-5-5-|
E|------------------------------------------------------------------------------|

G|-7----------------------------------------------------------3----------------|
D|-7----------------------------------------------------------3----------------|
A|-5--5-5-5--5-5-5--5-5-5--5-5-5--5-5-5--5-5-5--5-5-5--5-5-5--1--1-1-1--1-1-1--|
E|-----------------------------------------------------------------------------|

G|---------------------------------------------------------------------3--------|
D|-----------------------------------------5---------------------------3--------|
A|-1-1-1--1-1-1--1-1-1--1-1-1--1-1-1--1-1--5---------------------------1--1-1-1-|
E|-----------------------------------------3--3-3-3--3-3-3--3-3-3--3-3----------|

G|--------------------7--------------------------------------------------------|
D|--------------------7--------------------------------------------------------|
A|-1-1-1--1-1-1--1-1--5--5-5-5--5-5-5--5-5-5--5-5-5--5-5-5--5-5-5--5-5-5---/5--|
E|-----------------------------------------------------------------------------|
                                                                       Faster

G|------------------------------------------------------------------------------|
D|------------------------------------------------------------------------------|
A|-5-0---5-5-0--5-5-0--5-5--0-1-1----1-1----1-1-----1-1----3-3-----3-3------3-3-|
E|--------------------------------1------1------1--------1-----3--------3-------|

G|-----------------------------------------------------------------------------|
D|-----------------------------------------------------------------------------|
A|-----3-3----5--5-0-0-5-5-7-7-8-8-10-10-8-8-7-5---5-0----5-5-0----5-5-0--5-5--|
E|3---------3------------------------------------------------------------------|

G|-----------------------------------------------------------------------------|
D|-----------------------------------------------------------------------------|
A|--0--1--1------1-1-------1-1------1-1-----3---3------3-3-----3-3-----3-3-----|
E|----------1---------1--------1----------1-------3--------3-------3--------3--|

G|----------------------------------------7--------------3--------------5------|
D|----------------------------------------7--------------3--------------5------|
A|--5--5-0-0-5-5-7-7-8-8-10-10-8-8-7-5----5--5-5--5-5-5--1--1-1--1-1-1--3--3-3-|
E|-----------------------------------------------------------------------------|

G|--------3-----5-----7--------------3--------------5---------------------------|
D|--------3-----5-----7--------------3--------------5---------------------------|
A|-3-3-3--1--1--3--3--5--5-5--5-5-5--1--1-1--1-1-1--3--3-3--3-3-3--3-3-3--3-3-3-|
E|------------------------------------------------------------------------------|

G|--7-------------3--------------5-------------5----7----7--------------3------|
D|--7-------------3--------------5-------------3-3--5-5--7--------------3------|
A|--5-5-5--5-5-5--1--1-1--1-1-1--3--3-3--3-3-3-----------5--5-5--5-5-5--1--1-1-|
E|-----------------------------------------------------------------------------|

G|---------3--------------5--------------7---------------5--------------3------|
D|---------3--------------5--------------7---------------5--------------3------|
A|-1-1-1-1-1--1-1-1--1-1--3--3-3-3--3-3--5--5-5-5--5-5---3--3-3-3--3-3--1--1-1-|
E|-----------------------------------------------------------------------------|
        Slower

G|----------5----7----7----------------------------3--------------5-------------|
D|----------3-3--5-5--7----------------------------3--------------5-------------|
A|-1--1-1-------------5--5-5-5--5-5-5--5-5-5--5-5--1--1-1-1--1-1--3--3-3-3--3-3-|
E|------------------------------------------------------------------------------|

G|--7------------5------------------3--------------5----7----7------------------|
D|--7------------5------------------3--------------3-3--5-5--7------------------|
A|--5--5-5-5--5--5--3--3-3-3--3-3---1--1-1-1--1-1------------5--5-5-5--5-5-5--5-|
E|------------------------------------------------------------------------------|

G|-----------3--------------5--------------7--------------5--------------3------|
D|-----------3--------------5--------------7--------------5--------------3------|
A|-5-5--5-5--1--1-1-1--1-1--3--3-3-3--3-3--5--5-5-5--5-5--3--3-3-3--3-3--1--3-3-|
E|------------------------------------------------------------------------------|

G|---------5----7----7----------------------------3--------------5-------------|
D|---------3-3--5-5--7----------------------------3--------------5-------------|
A|-3--3-3------------5--5-5-5--5-5-5--5-5-5--5-5--1--1-1-1--1-1--3--3-3-3--3-3-|
E|-----------------------------------------------------------------------------|

G|-7--------------5--------------3-------------5----7----7-|
D|-7--------------5--------------3-------------3-3--5-5--7-|
A|-5--5-5-5--5-5--3--3-3-3--3-3--1--1-1-1--1-1-----------5-|
E|---------------------------------------------------------|
                                            Ritard.

G|---7---7---7---7----3---3---3---3-----5---5---5---5-----3---3-----5---5-----7-|
D|------------------------------------------------------------------------------|
A|-5---5---5---5----1---1---1---1-----3---3---3---3-----1---1-----3---3-----5---|
E|------------------------------------------------------------------------------|
Outtro (much slower)

G|---7---7---7-----3---3---3---3-----5---5---5---5---5---5---5---5------7---7--|
D|-----------------------------------------------------------------------------|
A|-5---5---5-----1---1---1---1-----3---3---3---3---3---3---3---3------5---5----|
E|-----------------------------------------------------------------------------|

G|---7---7----3---3---3---3-----5---5---5---5------5---5----7---7---7---7----||
D|-----------------------------------------------3---3----5---5--------------||
A|-5---5----1---1---1---1-----3---3---3---3------------------------5---5---5-||
E|---------------------------------------------------------------------------||
                                                               Last note
                                                               rings a while

* The intro can also be:

G|-7--------------------------------------5------------------------------------|
D|-7--------------------------------------5-----------------2-2----------------|
A|-5--0-0--5-5--7-7--8-8--7-7--5-5--7-7---3-------3-3--5-5-------5-5--3-3--5-5-|
E|-------------------------------------------3-3-------------------------------|

G|--------7--------------------------------------5-----------------------------|
D|-2------7--------------------------------------5-------------------2-2-------|
A|----3---5--0-0--5-5--7-7--8-8--7-7--5-5--7-7---3-3--------3-3--5-5------5-5--|
E|-----------------------------------------------------3-3---------------------|

G|------------------2----------------------------------------5------------------|
D|-----------2------2----------------------------------------3-3-------3-3--5-5-|
A|-3-3--5-5-----3---0-0-------0-0--2-2--3-3--2-2--0-0--2-2---3----3-3-----------|
E|-----------------------0-0----------------------------------------------------|

G|-2-2------------2------2---------------------------------------5-5--0-0--5-5-|
D|------5-5--3-3-----3---2-----------------------------------------------------|
A|-----------------------0-0-------0-0--2-2--3-3--2-2--0-0--2-2----------------|
E|----------------------------0-0----------------------------------------------|
                                                                  Ritard.

G|-7-7--9-9--7-7--5-5--9---5---|
D|-----------------------------|
A|-----------------------------|
E|-----------------------------|



************************************

| /  Slide up

************************************
Suggest correction
comments
print report bad tab
20 comments total. Showing first comments.
+6 reply
METSOAD 1,622 Mar 12, 2006 04:05 AM

no, this is steve harris, he plays power chords on bass
and i've listened to the record and this is correct

+3 reply
2bit 10 Oct 04, 2006 05:48 AM

this is soooooooooo good

+3 reply
read2906 242 Dec 14, 2006 04:45 PM

good work , everything seems to be in place. and yes , steve harris plays power chords on bass. silly people.

guest
You may want to rate the tab now too:
select rating
Wanna post a correction for this tab? Suggest correction