Oops, an error
Loading. Please wait.

Fear Of The Dark Bass Tab

version 2
version 2
54,034 views 93 this week
3 commentsread comments
1 2 3 4 5
x 17
add to favorites
launch autoscroll
font size
0
reset
guitar tuner
Autoscroll
slow
fast
+/-
esc
set tempo
stop
Help us to improve Ultimate-Guitar.com Take our survey!
×
Author
[Intro 1]
G|-----------------------------|
D|-----------------------------|
A|-5~-3~-5~-3~-----------------|
E|-------------5~-3~-5~-1~-3~--|

[Intro 2]
G|-------------------------------------------------------------------|
D|---7---7---7---7---3---3---3---3---5---5---5---5---3---3---5---5---|
A|-5---5---5---5---1---1---1---1---3---3---3---3---1---1---3---3-----|
E|-------------------------------------------------------------------|

[Intro 2]
(continued)  
G|-------------------------------------------------------------------|
D|---7---7---7---7---3---3---3---3---5---5---5---5---5---5---5---5---|
A|-5---5---5---5---1---1---1---1---3---3---3---3---3---3---3---3-----|x2
E|-------------------------------------------------------------------|

[Intro 3]
G|-------------------------------------------------------------------|
D|---7---7---7---7---3---3---3---3---5---5---5---5---3---3---5---5---|
A|-5---5---5---5---1---1---1---1---3---3---3---3---1---1---3---3-----|x2
E|-------------------------------------------------------------------|

[Intro 4]
G|---------------------------------------------------5---5---7---7---|
D|---7---7---7---7---3---3---3---3---5---5---5---5-3---3---5---5-----|
A|-5---5---5---5---1---1---1---1---3---3---3---3---------------------|
E|-------------------------------------------------------------------|

[Intro 5]
G|-------------------------------------------------------------------|
D|---7---7---7---7---3---3---3---3---5---5---5---5---5---5---5---5---|
A|-5---5---5---5---1---1---1---1---3---3---3---3---3---3---3---3-----|
E|-------------------------------------------------------------------|

[Intro 6]
G|-------------------------------------------------------------------|
D|---3---3---3---3---5---5---5---5---7---7---7---7---5---5---5-------|
A|-1---1---1---1---3---3---3---3---5---5---5---5---3---3---3---3-----|
E|-------------------------------------------------------------------|

[Intro 7]
(continued)    
G|-------------------5---5---7---7-----------------------------------|
D|---3---3---3---3-3---3---5---5----7---7---7---7---7---7---7---7----| x2
A|-1---1---1---1------------------5---5---5---5---5---5---5---5------|
E|-------------------------------------------------------------------|

[Break]
G|----------------------------------------------------------------|
D|----------------------------------------------------------------|
A|-5-5-5-0-5-5-5-0-5-5-5-0-5-5-5-1-1-1---1-1-1---1-1-1---1-1-1----|
E|-------------------------------------1-------1-------1----------|

[Break]
(continued)      
G|----------------------------------------------------------------|
D|----------------------------------------------------------------|
A|-3-3-3---3-3-3---3-3-3---3-3-3-5-5-0-0-5-5-7-7-8-8-10-10-8-8-7--| x2
E|-------3-------3-------3----------------------------------------|

[Verse 1]
G|---------------------------------------------------|
D|---------------------------------------------------|
A|-5-5-5-5-5-5-1-1-1-1-1-1-3-3-3-3-3-3-5-5-5-5-5-5---| x2
E|---------------------------------------------------|

[Chorus]
G|-------------------------------------------------------------------|
D|-----------------------------------------3-3-5-5-------------------|x2
A|-1-1-1-1-3-3-3-3-5-5-5-5-3-3-3-3-1-1-1-1---------5-5-5-5-5-5-5-5---|
E|-------------------------------------------------------------------|

[Verse 2]
G|-------------------------------------------------------------------|
D|-------------------------------------------------------------------|
A|-5-5-5-5-1-1-1-1-3-3-3-3-5-5-3-3-5-5-5-5-1-1-1-1-3-3-3-3-3-3-3-3---|
E|-------------------------------------------------------------------|

[Verse 2]
(continued)
G|-------------------------------------------------------------------|
D|-------------------------3-3-5-5-----------------------------------|
A|-5-5-5-5-1-1-1-1-3-3-3-3---------5-5-5-5-1-1-1-1-3-3-3-3-3-3-3-3---|
E|-------------------------------------------------------------------|

[Chorus]
G|-------------------------------------------------------------------|
D|-----------------------------------------3-3-5-5-------------------|x2
A|-1-1-1-1-3-3-3-3-5-5-5-5-3-3-3-3-1-1-1-1---------5-5-5-5-5-5-5-5---|
E|-------------------------------------------------------------------|

Break x2

[Bridge 1]
[Solo]
G|----------------------------------------------------------|
D|----------------------------------------------------------| x2
A|-5-5-5-5-5-5-1-1-1-1-1-1-------------1-1-3-3-5-5-5-5-5-5--|
E|-------------------------3-3-3-3-3-3----------------------|

[Bridge 2]
G|----------------------------------------------------|
D|----------------------------------------------------|x2
A|-5-5-5-5-5-5-1-1-1-1-1-1-------------3-5-5-5-5-5-5--|
E|-------------------------3-3-3-3-3-3----------------|

[Bridge 3]
G|--------------------------------------------------|
D|--------------------------------------------------| x2
A|-5-5-5-5-5-5-5-5-1-1-1-1-3-3-3-3-5-5-5-5-5-5-5-5--|
E|--------------------------------------------------|

[Bridge 4]
G|--------------------------------------------------|
D|--------------------------------------------------|
A|-9-9-9-9-9-9-9-9-5-5-5-5-7-7-7-7-9-9-9-9-9-9-9-9--| x2
E|--------------------------------------------------|

[Bridge 5]
G|------------------------------------------------------|
D|------------------------------------------------------| x4
A|-5-5-5-5-5-5-1-1-1-1-1-1-----------------5-5-5-5-5-5--|
E|-------------------------3-3-3-3-5-5-5-5--------------|

Break x2

[Verse 3]     
G|------------------------------------------------------------------|
D|------------------------------------------------------------------|
A|-5-5-5-5-1-1-1-1-3-3-3-3---------5-5-5-5-1-1-1-1-3-3-3-3-3-3-3-3--| x2
E|-------------------------1-1-3-3----------------------------------|

[Chorus]
G|-------------------------------------------------------------------|
D|-----------------------------------------3-3-5-5-------------------|x2
A|-1-1-1-1-3-3-3-3-5-5-5-5-3-3-3-3-1-1-1-1---------5-5-5-5-5-5-5-5---|
E|-------------------------------------------------------------------|

[Outro chorus]
G|-----------------------------------------------|
D|------------------------------------3~-5~------|
A|-1-1-1-1-3-3-3-3-5-5-5-5-3-3-3-3-1~-------5~---|
E|-----------------------------------------------|

[Intro 1]
G|-----------------------------|
D|-----------------------------|
A|-5~-3~-5~-3~-----------------|
E|-------------5~-3~-5~-1~-3~--|

[Outro]
G|---------------------------------------------------5---5---7---7----7------|
D|---7---7---7---7---3---3---3---3---5---5---5---5-3---3---5---5-----7---7---|
A|-5---5---5---5---1---1---1---1---3---3---3---3------------------5-------5~-|
E|---------------------------------------------------------------------------|


************************************

| ~  Let ring

************************************
Suggest correction
comments
print report bad tab
3 comments total.
0 reply
2bit 10 Sep 02, 2006 10:20 AM

this is totally awsome, its pratctically perfect!!!

+1 reply
ffafrule 10 Feb 25, 2007 05:13 AM

It's played with power-chords at the start of every note in the chorus. Version 1 is 100% correct.

0 reply
heavyinmind 133 Nov 01, 2008 10:02 PM

godd, this tab sucks!!!
everyone know that steve plays power chords in the intro!!!!
see some bass covers on youtube mann!!

guest
You may want to rate the tab now too:
select rating
Wanna post a correction for this tab? Suggest correction