Oops, an error
Loading. Please wait.

Flight Of Icarus tab

version 3
version 3

Whole song

4,578 views 6 this week
3 commentsread comments
1 2 3 4 5
x 5
add to favorites
×
Save as Personal and add changes to this tab that will be seen only by you. Learn more ›
×
You can save this tab as Personal to edit and correct it or add notes. All changes will be seen only by you. Learn more »
launch autoscroll
font size
0
reset
how to read this tab
guitar tuner
backing track
0:00
0:00
edit
Autoscroll
slow
fast
+/-
esc
set tempo
stop
Author
Difficulty
Band:  (iron maiden)
Album: (piece of mind)
Song:  (flight of icarus)

Transcribed By: thelordofguitar
Email: guitarmaster_9@hotmail.com    


.  - palm mute           /  - slide up to
\  - slide down to       ~  - vibrato
h  - hammer on           b  - Bend
p  - pull off            Suffixes for bend
t  - tap                 f  - full bend    h - half bend
ph - pinched harmonic    q  - quarter bend t - tap bend
*  - see comment         ^  - Hold bend    r release bend
x  - Stuccatto           ~  - vibrato bend
,  - slight palm mute    () - ghost note, sustained note
"  - tremolo note        <> - Trill

Tunning E A D G B E

|-------------------------------------------------------------------|
|-2-----------------------------------------------------------------|
|-2--0--------------------------------------------------------------|
|-2--2--------------------------------------------------------------|
|-0--2--4-4-4-4-4-4-4-4-4-4-----------------------------------------|
|----0--2-2-2-2-2-2-2-2-2-2-----------------------------------------|
        pm......pm.......pm

(verse1)
|-------------------------------------------------------------------|
|-------------------------------------------------------------------|
|------2--0--2------------------------------------------------------|
|-4----2--2--2--4---------------------------------------------------|
|-4----0--2--0--4---------------------------------------------------|
|-2-------0-----2---------------------------------------------------|

(interlude)
|-------------------------------------------------------------------|
|-------------------------------------------------------------------|
|-------------------------------------------------------------------|
|-----------------------------------------9-9-9---------------------|x1
|-4-4-4-4-4--7-7-7-7--7-7-7-7-7--9-9-9-11-7-7-7---------------------|
|-2-2-2-2-2--4-4-4-4--5-5-5-5-5--7-7-7--9---------------------------|

(chorus)
|-------------------------------------------------------------------|
|-------------------------------------------------------------------|
|------1-1----------------------------------------------------------|
|-4-4--2-2---7-7-7-7-7-7-9-9-9--------------------------------------|x2
|-4-4--2-2---5-4-5-5-4-5-7-6-7--------------------------------------|
|-2-2---------------------------------------------------------------|

(verse2)
|-----------------2-------------------------------------------------|
|-------------------2---5-------------------------------------------|
|---------------------2----2---2------------------------------------|
|--------------------------2-2-2--4---------------------------------|
|-4-4-4-4-4-4-4-4----------0-2-0--4---------------------------------|
|-2-2-2-2-2-2-2-2------------0----2---------------------------------|
the fill at the top is dave murrays part that he plays with slight
vibrato with whammy bar

(interlude)
|-------------------------------------------------------------------|
|-------------------------------------------------------------------|
|-------------------------------------------------------------------|
|-------------------------------------------------------------------|
|-4-4-4-4--7-7-7-7--7-7-7-7--9-9--7-7-4-4-4-4-7-7-7-7-7-9-9-11-14---|
|-2-2-2-2--4-4-4-4--5-5-5-5--7-7--5-4-2-2-2-2-4-4-4-5-5-7-7-9--12---|

(chorus)
|-------------------------------------------------------------------|
|-------------------------------------------------------------------|
|-----1-1-----------------------------------------------------------|
|-4-4-2-2---7-7-7-7-7-7-9-9-9---------------------------------------|x2
|-4-4-2-2---5-4-5-5-4-5-7-6-7---------------------------------------|
|-2-2---------------------------------------------------------------|

(solo1)(dave murray)
|-------------------------------------------------------------------|
|----------------------------------------------------14h15p14----14h15h17|
|-4br4p2-------------------------13h14p13---13h14h16----------16----|
|--------4p2---------------14h16----------16------------------------|
|------------4p3p2p0------------------------------------------------|
|--------------------2~~~~------------------------------------------|

|--14h17p14-------14h17p14-------14h17p14------------14-16-17\19----|
|-----------17p14----------17p14----------17p14--17b----------------|
|-------------------------------------------------------------------|
|-------------------------------------------------------------------|
|-------------------------------------------------------------------|
|-------------------------------------------------------------------|

|-19br19p17h19r19br19p17h19-17h19p17h19p17h19-16h17p16h17-14h17p14h17|
|-------------------------------------------------------------------|
|-------------------------------------------------------------------|
|-------------------------------------------------------------------|
|-------------------------------------------------------------------|
|-------------------------------------------------------------------|

|----14-------------------------------------------------------------|
|-17----17p14h17p14-12h14p12----------------------------------------|
|----------------------------16p14h16-16br16-14---------------------|
|-----------------------------------------------16-16p14----------14h16|
|--------------------------------------------------------16p15p14---|
|-------------------------------------------------------------------|

|-------------------------------------------------------------------|
|--14----14----17b--14----------------------------------------------|
|--14----14--16b----14----------------------------------------------|
|-----16---------------16~~~~~--------------------------------------|
|-------------------------------------------------------------------|
|-------------------------------------------------------------------|

(solo2)(adrian smith)
|-17br17-----14--17br17r17br17~~~~-17p14h17p14----14-----14---------|
|---------14-----------------------------------17----17b----17p14---|
|-------------------------------------------------------------------|
|-------------------------------------------------------------------|
|-------------------------------------------------------------------|
|-------------------------------------------------------------------|

|-------------------------------------------------------------------|
|----------------------------------------------14----14----14-------|
|-16br16p14----14p13----13p11--------11-11~~~~----11----11----11----|
|-----------16-------16-------14\9~~~-------------------------------|
|-------------------------------------------------------------------|
|-------------------------------------------------------------------|

|-14-----14-----14-----14-------------17p14h17p14----14-------------|
|----17b----17b----17b----17p14-------------------17----17p14h17p14-|
|-------------------------------16p14-------------------------------|
|-------------------------------------------------------------------|
|-------------------------------------------------------------------|
|-------------------------------------------------------------------|

|-------------------------------------------------------------------|
|-------------------------------------------------------------------|
|-16p14h16p14-16bp14------------------------------------------------|
|--------------------16p14------------------------------------------|
|--------------------------16~~~~~----------------------------------|
|-------------------------------------------------------------------|
chords for the first solo are f#m a em f#m a em a em f#m
chords for second solo are just the chords for the interlude
 repeat chorus 4x interlude finish on the intro

           

            
            
Suggest correction
Creating personal tab
Creating personal tab
You can edit any tab online and save it as your Personal.

You can edit, replace or remove any tab part or add personal notes – all changes will be seen only by you.

Personal tabs can be accessed anytime from any device, even offline.
Learn more »
comments
print report bad tab
3 comments total.
0 reply
metal4all 50 Feb 20, 2006 02:12 PM

good enough. good job

0 reply
Jaykib 20 Feb 25, 2006 11:30 PM

It's not correct but it does sound good, I'll give you a 3*

0 reply
rocker301 10 Sep 11, 2006 05:18 PM

this isnt the song on the album edward the great(greatest hits)

guest
You may want to rate the tab now too:
select rating
Wanna post a correction for this tab? Suggest correction