Oops, an error
Loading. Please wait.

Flight Of Icarus tab

version 4
version 4

Whole song

10,588 views 15 this week
7 commentsread comments
1 2 3 4 5
x 5
add to favorites
×
Save as Personal and add changes to this tab that will be seen only by you. Learn more ›
×
You can save this tab as Personal to edit and correct it or add notes. All changes will be seen only by you. Learn more »
launch autoscroll
font size
0
reset
how to read this tab
guitar tuner
backing track
0:00
0:00
edit
Autoscroll
slow
fast
+/-
esc
set tempo
stop
                                FLIGHT OF ICARUS
                           As recorded by Iron Maiden
                       (From the 1983 Album PIECE OF MIND)

Words and Music by Adrian Smith & Bruce Dickinson
Transcribed by Floyd Cribb

Gtr I (E A D G B E) - 'Dave Murray'
Gtr II (E A D G B E) - 'Adrian Smith'

 Intro
  Q=110
  A5 E5   F#5
 2/4     4/4
  Gtr I
          PM----------------------------------------------|
  Q  Q    E S S E S S E S S E S S   E S S E S S E S S E S S
|-------|-------------------------|-------------------------|
|-------|-------------------------|-------------------------|
|-2-----|-------------------------|-------------------------|
|-2--2--|-------------------------|-------------------------|
|-0--2--|-4-4-4-4-4-4-4-4-4-4-4-4-|-4-4-4-4-4-4-4-4-4-4-4-4-|
|----0--|-2-2-2-2-2-2-2-2-2-2-2-2-|-2-2-2-2-2-2-2-2-2-2-2-2-|
|
| Gtr II
|         PM----------------------------------------------|
| Q  Q    E S S E S S E S S E S S   E S S E S S E S S E S S
|-------|-------------------------|-------------------------|
|-------|-------------------------|-------------------------|
|-2-----|-------------------------|-------------------------|
|-2--2--|-------------------------|-------------------------|
|-0--2--|-4-4-4-4-4-4-4-4-4-4-4-4-|-4-4-4-4-4-4-4-4-4-4-4-4-|
|----0--|-2-2-2-2-2-2-2-2-2-2-2-2-|-2-2-2-2-2-2-2-2-2-2-2-2-|


  F#5
  PM----------------------------------------------|
  E S S E S S E S S E S S   E S S E S S E S S E S S
|-------------------------|-------------------------||
|-------------------------|-------------------------||
|-------------------------|-------------------------||
|-------------------------|-------------------------||
|-4-4-4-4-4-4-4-4-4-4-4-4-|-4-4-4-4-4-4-4-4-4-4-4-4-||
|-2-2-2-2-2-2-2-2-2-2-2-2-|-2-2-2-2-2-2-2-2-2-2-2-2-||
|
| PM----------------------------------------------|
| E S S E S S E S S E S S   E S S E S S E S S E S S
|-------------------------|-------------------------||
|-------------------------|-------------------------||
|-------------------------|-------------------------||
|-------------------------|-------------------------||
|-4-4-4-4-4-4-4-4-4-4-4-4-|-4-4-4-4-4-4-4-4-4-4-4-4-||
|-2-2-2-2-2-2-2-2-2-2-2-2-|-2-2-2-2-2-2-2-2-2-2-2-2-||


 Verse 1
  F#m                                              A5
  Gtrs I, II
   >
   W          +W           +W           +H     +E  S S Q
|-^2--------|-(2)--------|-(2)--------|-(2)----(2)--------|
|-^2--------|-(2)--------|-(2)--------|-(2)----(2)--------|
|-^2--------|-(2)--------|-(2)--------|-(2)----(2)-----2--|
|-^4--------|-(4)--------|-(4)--------|-(4)----(4)-2-2-2--|
|-^4--------|-(4)--------|-(4)--------|-(4)----(4)-0-0-0--|
|-^2--------|-(2)--------|-(2)--------|-(2)----(2)--------|


  E5                    A5       F#5
  >                              >
  W          +H     +E  S S Q    W          +W
|----------|-------------------|----------|--------|
|----------|-------------------|----------|--------|
|----------|----------------2--|----------|--------|
|-2--------|-(2)----(2)-2-2-2--|-4--------|-(4)----|
|-2--------|-(2)----(2)-0-0-0--|-4--------|-(4)----|
|-0--------|-(0)----(0)--------|-2--------|-(2)----|


  F#5                E/G#               A5                 B5   C#5
  Q  Q  S S E S E.   Q  Q  S S E S E.   Q  Q  S S E S E.   H    Q  Q
|------------------|------------------|------------------|-------------||
|------------------|------------------|------------------|-------------||
|------------------|------------------|------------------|-------------||
|------------------|------------------|------------------|-4----6--6\--||
|-4--4--x-x-4-x-4--|-7--7--x-x-7-x-7--|-7--7--x-x-7-x-7--|-2----4--4\--||
|-2--2--x-x-2-x-2--|-4--4--x-x-4-x-4--|-5--5--x-x-5-x-5--|-------------||


 Chorus
  $
  F#5          E5            D5  C#D5    D5C#D5    D5C#5
  Gtr I
  Q  H.        Q   H.        E S S E S S S S E S S S S
|------------|-----0-------|---------------------------|
|------------|-----0-------|---------------------------|
|------------|-----4-------|---------------------------|
|----4-------|-2--(2)------|---7s6-7-x-x-7s6-7-x-x-7s6-|
|-4--4-------|-2--(2)------|-5-5s4-5-x-x-5s4-5-x-x-5s4-|
|-2--2-------|-0--(0)------|---------------------------|
|
| Gtr II
| Q  H.        Q   H.        E S S E S S S S E S S S S
|------------|-----0-------|---------------------------|
|------------|-----0-------|---------------------------|
|------------|-----4-------|---------------------------|
|----4-------|-2--(2)------|---7s6-7-x-x-7s6-7-x-x-7s6-|
|-4--4-------|-2--(2)------|-5-5s4-5-x-x-5s4-5-x-x-5s4-|
|-2--2-------|-0--(0)------|---------------------------|


  D5    E5D5E5
  E S S S S H           +E
|---------------------------|
|---------------------------|
|---------------------------|
|-7-x-x-9s7-9-----------(9)-|
|-5-x-x-7s5-7-----------(7)-|
|---------------------------|
|
| E S S S S Q  S S +Q
|---------------------------|
|---------------------------|
|---------------------------|
|-7-x-x-9s7-9---------------|
|-5-x-x-7s5-7---------------|
|--------------2s5-(5)\-----|


  F#5          E5               D5  C#D5    D5C#D5    D5C#5
  Q  H.        Q   H.           E S S E S S S S E S S S S
|------------|-----0----------|---------------------------|
|------------|-----0----------|---------------------------|
|------------|-----4----------|---------------------------|
|----4-------|-2--(2)---------|---7s6-7-x-x-7s6-7-x-x-7s6-|
|-4--4-------|-2--(2)---------|-5-5s4-5-x-x-5s4-5-x-x-5s4-|
|-2--2-------|-0--(0)---------|---------------------------|
|
| Q  H.        Q   H      Q     E S S E S S S S E S S S S
|------------|-----0----------|---------------------------|
|------------|-----0----------|---------------------------|
|------------|-----4----------|---------------------------|
|----4-------|-2--(2)---------|---7s6-7-x-x-7s6-7-x-x-7s6-|
|-4--4-------|-2--(2)----/7\--|-5-5s4-5-x-x-5s4-5-x-x-5s4-|
|-2--2-------|-0--(0)---------|---------------------------|


                     To Coda
  D5    E5D5E5
  E S S S S H           +E
|------------------------------||
|------------------------------||
|------------------------------||
|-7-x-x-9s7-9-----------(9)----||
|-5-x-x-7s5-7-----------(7)----||
|------------------------------||
|
| E S S S S Q  S S +Q
|------------------------------||
|------------------------------||
|------------------------------||
|-7-x-x-9s7-9------------------||
|-5-x-x-7s5-7------------------||
|--------------2s5-(5)\--------||


 Bridge
  F#5
  Gtrs I, II
  PM----------------------------------------------|
  E S S E S S E S S E S S   E S S E S S E S S E S S
|-------------------------|-------------------------|
|-------------------------|-------------------------|
|-------------------------|-------------------------|
|-------------------------|-------------------------|
|-4-4-4-4-4-4-4-4-4-4-4-4-|-4-4-4-4-4-4-4-4-4-4-4-4-|
|-2-2-2-2-2-2-2-2-2-2-2-2-|-2-2-2-2-2-2-2-2-2-2-2-2-|


  F#5
  PM----------------------------------------------|
  E S S E S S E S S E S S   E S S E S S E S S E S S
|-------------------------|-------------------------||
|-------------------------|-------------------------||
|-------------------------|-------------------------||
|-------------------------|-------------------------||
|-4-4-4-4-4-4-4-4-4-4-4-4-|-4-4-4-4-4-4-4-4-4-4-4-4-||
|-2-2-2-2-2-2-2-2-2-2-2-2-|-2-2-2-2-2-2-2-2-2-2-2-2-||


 Verse 2
  F#m                                                           A5
  Gtr I
   >
   W          +W                     +W              +H     +E  S S Q
|-^2--------|-(2)------------------|-(2)-----------|-(2)----(2)---------|
|-^2--------|-(2)------------------|-(2)-----------|-(2)----(2)---------|
|-^2--------|-(2)------------------|-(2)-----------|-(2)----(2)-----2---|
|-^4--------|-(4)------------------|-(4)-----------|-(4)----(4)-2-2-2---|
|-^4--------|-(4)------------------|-(4)-----------|-(4)----(4)-0-0-0---|
|-^2--------|-(2)------------------|-(2)-----------|-(2)----(2)---------|
|
| Gtr II
|                                     ~~~~~~~~~~
|  W          +H     E +S  E +S  E    H     +H       +H.            Q
|-----------|--------2-(2)---------|---------------|--------------------|
|-----------|--------------2-(2)---|--5-----(5)----|-(5)----------------|
|-----------|--------------------2-|---------------|----------------2---|
|--4--------|-(4)------------------|---------------|----------------2---|
|--4--------|-(4)------------------|---------------|----------------0---|
|--2--------|-(2)------------------|---------------|--------------------|


  E5                        A5   F#5
  >                              >
  W          +H     +E  S S Q    W          +W
|----------|-------------------|----------|--------|
|----------|-------------------|----------|--------|
|----------|----------------2--|----------|--------|
|-2--------|-(2)----(2)-2-2-2--|-4--------|-(4)----|
|-2--------|-(2)----(2)-0-0-0--|-4--------|-(4)----|
|-0--------|-(0)----(0)--------|-2--------|-(2)----|
|
| >                              >
| W          +H     +E  S S Q    W          +W
|----------|-------------------|----------|--------|
|----------|-------------------|----------|--------|
|----------|----------------2--|----------|--------|
|-2--------|-(2)----(2)-2-2-2--|-4--------|-(4)----|
|-2--------|-(2)----(2)-0-0-0--|-4--------|-(4)----|
|-0--------|-(0)----(0)--------|-2--------|-(2)----|


  F#5                E/G#               A5                 B5      A5  E/G#
  Gtrs I, II
  Q  Q  S S E S E.   Q  Q  S S E S E.   Q  Q  S S E S E.   Q  Q  E E S E.
|------------------|------------------|------------------|----------------|
|------------------|------------------|------------------|----------------|
|------------------|------------------|------------------|----------------|
|------------------|------------------|------------------|-4--4-----------|
|-4--4--x-x-4-x-4--|-7--7--x-x-7-x-7--|-7--7--x-x-7-x-7--|-2--2----7---7--|
|-2--2--x-x-2-x-2--|-4--4--x-x-4-x-4--|-5--5--x-x-5-x-5--|---------5---4--|


  F#5                E/G#               A5                 B5   C#5
  Q  Q  S S E S E.   Q  Q  S S E S E.   Q  Q  S S E S E.   H    Q  Q
|------------------|------------------|------------------|-------------||
|------------------|------------------|------------------|-------------||
|------------------|------------------|------------------|-------------||
|------------------|------------------|------------------|-4----6--6\--||
|-4--4--x-x-4-x-4--|-7--7--x-x-7-x-7--|-7--7--x-x-7-x-7--|-2----4--4\--||
|-2--2--x-x-2-x-2--|-4--4--x-x-4-x-4--|-5--5--x-x-5-x-5--|-------------||


 Chorus
  F#5          E5            D5  C#D5    D5C#D5    D5C#5
  Gtr I
  Q  H.        Q   H.        E S S E S S S S E S S S S
|------------|-----0-------|---------------------------|
|------------|-----0-------|---------------------------|
|------------|-----4-------|---------------------------|
|----4-------|-2--(2)------|---7s6-7-x-x-7s6-7-x-x-7s6-|
|-4--4-------|-2--(2)------|-5-5s4-5-x-x-5s4-5-x-x-5s4-|
|-2--2-------|-0--(0)------|---------------------------|
|
| Gtr II
| Q  H.        Q   H.        E S S E S S S S E S S S S
|------------|-----0-------|---------------------------|
|------------|-----0-------|---------------------------|
|------------|-----4-------|---------------------------|
|----4-------|-2--(2)------|---7s6-7-x-x-7s6-7-x-x-7s6-|
|-4--4-------|-2--(2)------|-5-5s4-5-x-x-5s4-5-x-x-5s4-|
|-2--2-------|-0--(0)------|---------------------------|


  D5    E5D5E5
  E S S S S H           +E
|---------------------------|
|---------------------------|
|---------------------------|
|-7-x-x-9s7-9-----------(9)-|
|-5-x-x-7s5-7-----------(7)-|
|---------------------------|
|
| E S S S S Q  S S +Q
|---------------------------|
|---------------------------|
|---------------------------|
|-7-x-x-9s7-9---------------|
|-5-x-x-7s5-7---------------|
|--------------2s5-(5)\-----|


  F#5          E5
  Q  H.        Q   H.
|------------|-----0----------|
|------------|-----0----------|
|------------|-----4----------|
|----4-------|-2--(2)---------|
|-4--4-------|-2--(2)---------|
|-2--2-------|-0--(0)---------|
|
| Q  H.        Q   H      Q
|------------|-----0----------|
|------------|-----0----------|
|------------|-----4----------|
|----4-------|-2--(2)---------|
|-4--4-------|-2--(2)----/7\--|
|-2--2-------|-0--(0)---------|


  D5  C#D5    D5C#D5    D5C#5 D5    E5D5E5
  E S S E S S S S E S S S S   E S S S S H           +E
|---------------------------|---------------------------||
|---------------------------|---------------------------||
|---------------------------|---------------------------||
|---7s6-7-x-x-7s6-7-x-x-7s6-|-7-x-x-9s7-9-----------(9)-||
|-5-5s4-5-x-x-5s4-5-x-x-5s4-|-5-x-x-7s5-7-----------(7)-||
|---------------------------|---------------------------||
|
| E S S E S S S S E S S S S   E S S S S Q  S S +Q
|---------------------------|---------------------------||
|---------------------------|---------------------------||
|---------------------------|---------------------------||
|---7s6-7-x-x-7s6-7-x-x-7s6-|-7-x-x-9s7-9---------------||
|-5-5s4-5-x-x-5s4-5-x-x-5s4-|-5-x-x-7s5-7---------------||
|---------------------------|--------------2s5-(5)\-----||


 Guitar Solo 1
  E5                                                A5 E5
  Gtr I
                                         ~~
  Q        +Q      +E  S S S S S S   S S H.              S  S
|----------------------------------|--------------------------|
|----------------------------------|--------------------------|
|-4b6======(4)r====(4)-4-2---------|---------------------9-11-|
|--------------------------4-2-----|--------------------------|
|------------------------------4-3-|-2-0----------------------|
|----------------------------------|-----2--------------------|
|
| Gtr II
| PM----------------------------------------------|
| E    S S  E  S S  E  S S E   S S   E   S  S E S S Q  Q
|----------------------------------|--------------------------|
|----------------------------------|--------------------------|
|----------------------------------|--------------------------|
|----------------------------------|----------------2---------|
|-2----2-2--2--2-2--2--2-2-2---2-2-|-2---2--2-2-2-2-0--2------|
|-0----0-0--0--0-0--0--0-0-0---0-0-|-0---0--0-0-0-0----0------|


  F#5
  |------6-------| |-------6-------|
  S  S S S  S    S S  S S  S  S    S  T  T  T  T  T  T  T  T  T  T  T  T  T  T  T  T
|------------------9h10p9-10h12h==14-17p14p12h14-17p14p12h14-17p14p12h14-17p14p12h14-|
|-9h10p9-9h10h==12-------------------------------------------------------------------|
|------------------------------------------------------------------------------------|
|------------------------------------------------------------------------------------|
|------------------------------------------------------------------------------------|
|------------------------------------------------------------------------------------|
|
| PM----------------------------------------------------------------------------------
| E      S    S    E       S    S     E           S     S     E           S     S
|------------------------------------------------------------------------------------|
|------------------------------------------------------------------------------------|
|------------------------------------------------------------------------------------|
|------------------------------------------------------------------------------------|
|-4------4----4----4-------4----4-----4-----------4-----4-----4-----------4-----4----|
|-2------2----2----2-------2----2-----2-----------2-----2-----2-----------2-----2----|


                    A5    E5
   Q.          S  S  E  E  E     +S   S
|-12b14-------14-16-17-19-19b21r(19)-17--|
|----------------------------------------|
|----------------------------------------|
|----------------------------------------|
|----------------------------------------|
|----------------------------------------|
|
|----------------|
|  E    S S E  S  S  Q     Q
|----------------------------------------|
|----------------------------------------|
|----------------------------------------|
|--------------------2-------------------|
|--4----4-4-4--4--4--0-----2-------------|
|--2----2-2-2--2--2--------0-------------|


  E5
                           |-------6--------|  |---3---|
   Q      E     +S   S  E  S  S    S  S  S  S  S  S    S
|-19-----19b21r(19)-17-19-17h19p==17-19p17h19-17h19p==17-|
|--------------------------------------------------------|
|--------------------------------------------------------|
|--------------------------------------------------------|
|--------------------------------------------------------|
|--------------------------------------------------------|
|
|  PM-----------------------------------------------------
|  E S S  E      S   S  E  S    S     E        S    S
|--------------------------------------------------------|
|--------------------------------------------------------|
|--------------------------------------------------------|
|--------------------------------------------------------|
|--2-2-2--2------2---2--2--2----2-----2--------2----2----|
|--0-0-0--0------0---0--0--0----0-----0--------0----0----|


                                              A5             E5E5
                           |-------6--------|  |-----6-----|  |------6-------|
   T  T  T  T  T  T  T  T  S  S  S  S  S    S  S S  S S  S S  S  S  S  S  S  S
|-16h17-16h17-16h17-16h17-16p14h16-14p12------12p9h12-9h12p9-----------------------|
|------------------------------------------14----------------12p10h12-12p10h12b14==|
|----------------------------------------------------------------------------------|
|----------------------------------------------------------------------------------|
|----------------------------------------------------------------------------------|
|----------------------------------------------------------------------------------|
|
|----------------------------------------|
|  E           S     S     E        S    S     Q              Q
|----------------------------------------------------------------------------------|
|----------------------------------------------------------------------------------|
|----------------------------------------------------------------------------------|
|----------------------------------------------2-----------------------------------|
|--2-----------2-----2-----2--------2----2-----0--------------2--------------------|
|--0-----------0-----0-----0--------0----0--------------------0--------------------|


  F#5
   +E   +E     E  E    S S  S  S S  S  S  S
|-------------------------------------------|
|-(12)r(12)---10----------------------------|
|----------------11---11-9------------------|
|--------------------------11-10-9----10-11-|
|----------------------------------11-------|
|-------------------------------------------|
|
|   PM---------------------------------------
|   E    S  S  E  S S  E    S  S E     S  S
|-------------------------------------------|
|-------------------------------------------|
|-------------------------------------------|
|-------------------------------------------|
|---4----4--4--4--4-4--4----4--4-4-----4--4-|
|---2----2--2--2--2-2--2----2--2-2-----2--2-|


                  A5           E5
                                ~~
   E  E    E  E    +E      +E   Q
|----------------------------------||
|-10------10-12---(12)b14r(12)-10--||
|----11----------------------------||
|----------------------------------||
|----------------------------------||
|----------------------------------||
|
|---------------|
|  E  S S  E  S S   Q           Q
|----------------------------------||
|----------------------------------||
|----------------------------------||
|-------------------2--------------||
|--4--4-4--4--4-4---0-----------2--||
|--2--2-2--2--2-2---------------0--||


 Guitar Solo 2
  F#5                                     E/G#
  Gtr II
                                                  ~~~~~~~~~~~~~~
   E      +E    Q.       E  E     E        +Q     H         +E      E
|-17b19==(17)r-17----------14----17b19==|=(17)r--17--------(17)----17-|
|-----------------------14--------------|-----------------------------|
|---------------------------------------|-----------------------------|
|---------------------------------------|-----------------------------|
|---------------------------------------|-----------------------------|
|---------------------------------------|-----------------------------|
|
| Gtr I
|  Q            Q   S S  E  S E.            Q     Q  S S E   S  E.
|---------------------------------------|-----------------------------|
|---------------------------------------|-----------------------------|
|---------------------------------------|-----------------------------|
|---------------------------------------|-----------------------------|
|--4------------4---x-x--4--x-4---------|---7-----7--x-x-7---x--7-----|
|--2------------2---x-x--2--x-2---------|---4-----4--x-x-4---x--4-----|


  A5
                                              ~~~~~~~~~~~~
   |------6-------|
   S  S  S  S  S  S  S  S  S  E       +S   S  Q       +S
|-14h17p14-12h14p12-14-12---------------------------------|
|-------------------------14-12b14r==(12)-10--------------|
|--------------------------------------------11------(11)-|
|---------------------------------------------------------|
|---------------------------------------------------------|
|---------------------------------------------------------|
|
|  Q                 Q             S   S   E    S E.
|---------------------------------------------------------|
|---------------------------------------------------------|
|---------------------------------------------------------|
|---------------------------------------------------------|
|--7-----------------7-------------x---x---7----x-7-------|
|--5-----------------5-------------x---x---5----x-5-------|


  B5                  C#5
                      ~
   S S S S  S  S  S S Q  +Q
|-------------------------------|
|-10-9---9----------------------|
|------7---11----11-9-----------|
|-------------11------9--(9)\---|
|-------------------------------|
|-------------------------------|
|
|  H                  Q   Q
|-------------------------------|
|-------------------------------|
|-------------------------------|
|--4------------------6---6\----|
|--2------------------4---4\----|
|-------------------------------|


  F#5                                E/G#
              ~~                                     ~~~~~~~
                        |---3----|    |--3--|  |--3--|
  E     +E    H         E     E  E    E  E  E  E  E  E  +Q.           E
|----------------------------------|---------------------------------14-|
|----------------------14-------14-|----14----14------------------------|
|-9b11==(9)r-11--------------11----|-11----11----11-11-(11)-------------|
|----------------------------------|------------------------------------|
|----------------------------------|------------------------------------|
|----------------------------------|------------------------------------|
|
| Q           Q  S S E  S E.          Q        Q         S  S E S E.
|----------------------------------|------------------------------------|
|----------------------------------|------------------------------------|
|----------------------------------|------------------------------------|
|----------------------------------|------------------------------------|
|-4-----------4--x-x-4--x-4--------|--7--------7---------x--x-7-x-7-----|
|-2-----------2--x-x-2--x-2--------|--4--------4---------x--x-4-x-4-----|


  A5
   E     S  E       S  S     S  S  S  S  S  S  E.
|-12b14-14-12b14---14-12b14-14-14-12--------------|
|------------------------------------14-13-12-10--|
|-------------------------------------------------|
|-------------------------------------------------|
|-------------------------------------------------|
|-------------------------------------------------|
|
|  Q             Q              S  S  E     S  E.
|-------------------------------------------------|
|-------------------------------------------------|
|-------------------------------------------------|
|-------------------------------------------------|
|--7-------------7--------------x--x--7-----x--7--|
|--5-------------5--------------x--x--5-----x--5--|


                                D.S. al Coda
  B5                      C#5
                                             ~~
   S  S  S  S  S  S  S  S  S  S  S  S  S  S  E
|-17-14-12-14-12-------------------------------||
|----------------14-13-14-12----12-------------||
|----------------------------14----14-11--9----||
|-------------------------------------------11-||
|----------------------------------------------||
|----------------------------------------------||
|
|  H                       Q           Q
|----------------------------------------------||
|----------------------------------------------||
|----------------------------------------------||
|--4-----------------------6-----------6\------||
|--2-----------------------4-----------4\------||
|----------------------------------------------||


 Out-Chorus
  &
  F#5          E5            D5  C#D5    D5C#D5    D5C#5
  Gtr I
  Q  H.        Q   H.        E S S E S S S S E S S S S
|------------|-----0-------|---------------------------|
|------------|-----0-------|---------------------------|
|------------|-----4-------|---------------------------|
|----4-------|-2--(2)------|---7s6-7-x-x-7s6-7-x-x-7s6-|
|-4--4-------|-2--(2)------|-5-5s4-5-x-x-5s4-5-x-x-5s4-|
|-2--2-------|-0--(0)------|---------------------------|
|
| Gtr II
| Q  H.        Q   H.        E S S E S S S S E S S S S
|------------|-----0-------|---------------------------|
|------------|-----0-------|---------------------------|
|------------|-----4-------|---------------------------|
|----4-------|-2--(2)------|---7s6-7-x-x-7s6-7-x-x-7s6-|
|-4--4-------|-2--(2)------|-5-5s4-5-x-x-5s4-5-x-x-5s4-|
|-2--2-------|-0--(0)------|---------------------------|


  D5    E5D5E5
  E S S S S H           +E
|---------------------------|
|---------------------------|
|---------------------------|
|-7-x-x-9s7-9-----------(9)-|
|-5-x-x-7s5-7-----------(7)-|
|---------------------------|
|
| E S S S S Q  S S +Q
|---------------------------|
|---------------------------|
|---------------------------|
|-7-x-x-9s7-9---------------|
|-5-x-x-7s5-7---------------|
|--------------2s5-(5)\-----|


  F#5          E5
  Q  H.        Q   H.
|------------|-----0--------------|
|------------|-----0--------------|
|------------|-----4--------------|
|----4-------|-2--(2)-------------|
|-4--4-------|-2--(2)-------------|
|-2--2-------|-0--(0)-------------|
|
| Q  H.        Q   Q.   S S +Q
|------------|-----0--------------|
|------------|-----0--------------|
|------------|-----4--------------|
|----4-------|-2--(2)-------------|
|-4--4-------|-2--(2)-------------|
|-2--2-------|-0--(0)---2s5-(5)\--|


  D5  C#D5    D5C#D5    D5C#5 D5    E5D5E5
  E S S E S S S S E S S S S   E S S S S H           +E
|---------------------------|-----------------------------||
|---------------------------|-----------------------------||
|---------------------------|-----------------------------||
|---7s6-7-x-x-7s6-7-x-x-7s6-|-7-x-x-9s7-9-----------(9)---||
|-5-5s4-5-x-x-5s4-5-x-x-5s4-|-5-x-x-7s5-7-----------(7)---||
|---------------------------|-----------------------------||
|
| E S S E S S S S E S S S S   E S S S S Q  S S +Q
|---------------------------|-----------------------------||
|---------------------------|-----------------------------||
|---------------------------|-----------------------------||
|---7s6-7-x-x-7s6-7-x-x-7s6-|-7-x-x-9s7-9-----------------||
|-5-5s4-5-x-x-5s4-5-x-x-5s4-|-5-x-x-7s5-7-----------------||
|---------------------------|--------------2s5-(5)\-------||


 Outro
  F#5                        E/G#
       ~~                         ~~
   Q   H         S S   S S    Q   H         S S   S S
|--------------------------|--------------------------|
|---------------10p9-------|---------------10p9-------|
|-11--11--------------11-9-|-11--11--------------11-9-|
|--------------------------|--------------------------|
|--------------------------|--------------------------|
|--------------------------|--------------------------|
|
|  Q   Q  S S E  S E.         Q   Q  S S E  S E.
|--------------------------|--------------------------|
|--------------------------|--------------------------|
|--------------------------|--------------------------|
|--------------------------|--------------------------|
|--4---4--x-x-4--x-4-------|--7---7--x-x-7--x-7-------|
|--2---2--x-x-2--x-2-------|--4---4--x-x-4--x-4-------|


  A5                         B5     C#5
       ~~                         ~~
   Q   H         S S   S S    Q   H      S  S  S S
|--------------------------|-----------------------|
|---------------10p9-------|------------10p=9------|
|-11--11--------------11-9-|-11--11-----------11-9-|
|--------------------------|-----------------------|
|--------------------------|-----------------------|
|--------------------------|-----------------------|
|
|  Q   Q  S S E  S E.         H      Q   Q
|--------------------------|-----------------------|
|--------------------------|-----------------------|
|--------------------------|-----------------------|
|--------------------------|--4------6---6\--------|
|--7---7--x-x-7--x-7-------|--2------4---4\--------|
|--5---5--x-x-5--x-5-------|-----------------------|


  F#5                                              E/G#
   E      +E    Q       +Q        S     +S   S S    E      +E    Q       +Q        S     +S   S S
|------------------------------------------------|------------------------------------------------|
|-12b14==(12)r-12b14===(12)r-----12b14r(12)-10-9-|-12b14==(12)r-12b14===(12)r-----12b14r(12)-10-9-|
|------------------------------------------------|------------------------------------------------|
|------------------------------------------------|------------------------------------------------|
|------------------------------------------------|------------------------------------------------|
|------------------------------------------------|------------------------------------------------|
|
|  Q            Q        S   S E  S      E.         Q            Q        S   S E  S      E.
|------------------------------------------------|------------------------------------------------|
|------------------------------------------------|------------------------------------------------|
|------------------------------------------------|------------------------------------------------|
|------------------------------------------------|------------------------------------------------|
|--4------------4--------x---x-4--x------4-------|--7------------7--------x---x-7--x------7-------|
|--2------------2--------x---x-2--x------2-------|--4------------4--------x---x-4--x------4-------|


  A5                                               B5                   C#5
   E      +E    Q       +Q        S     +S   S S    E      +E    Q       +H
|------------------------------------------------|-----------------------------------|
|-12b14==(12)r-12b14===(12)r-----12b14r(12)-10-9-|-12b14==(12)r-12b14===(12)r--------|
|------------------------------------------------|-----------------------------------|
|------------------------------------------------|-----------------------------------|
|------------------------------------------------|-----------------------------------|
|------------------------------------------------|-----------------------------------|
|
|  Q            Q        S   S E  S      E.         H                     Q    Q
|------------------------------------------------|-----------------------------------|
|------------------------------------------------|-----------------------------------|
|------------------------------------------------|-----------------------------------|
|------------------------------------------------|--4---------------------6----6\----|
|--7------------7--------x---x-7--x------7-------|--2---------------------4----4\----|
|--5------------5--------x---x-5--x------5-------|-----------------------------------|


  F#5                               E/G#
               TP                     TP                   TP
   Q          +H.                    +H.                  +Q
|---------------------------------|-------------------------------|
|-12b14======(12)-----------------|-(12)r================(12)-----|
|---------------------------------|-------------------------------|
|---------------------------------|-------------------------------|
|---------------------------------|-------------------------------|
|---------------------------------|-------------------------------|
|
|  PM--------------------------------------------------------------
|  E     S S   E  S S E S S E S S     E  S S E S S E S S   E  S S
|---------------------------------|-------------------------------|
|---------------------------------|-------------------------------|
|---------------------------------|-------------------------------|
|---------------------------------|-------------------------------|
|--4-----4-4---4--4-4-4-4-4-4-4-4-|---7--7-7-7-7-7-7-7-7---7--7-7-|
|--2-----2-2---2--2-2-2-2-2-2-2-2-|---4--4-4-4-4-4-4-4-4---4--4-4-|


  A5                                                                    B5                    C#5
                                                                                               ~~
                                |--------6--------|  |------6-------|    |-3--|
   E     E       E.      S     +S   S  S  S  S    S  S  S  S S  S   S    S S  S E   S  S S  S  H
|---------------------------------------------------------------------|-------------------------------------|
|-12b14-12b14---12b14---12b14r(12)-10----12-10---12-10-10-------------|-------------------------------------|
|-------------------------------------11------------------11-9-11---9-|-11-9-------------9-11-11------------|
|---------------------------------------------------------------------|------11-9---9-11--------------------|
|---------------------------------------------------------------------|-------------------------------------|
|---------------------------------------------------------------------|-------------------------------------|
|
|--------------------------------------------------------------------------------------------------------|
|  E     S    S  E    S  S      E         S    S     E       S    S      E      S S E    S  S  E S S E S S
|---------------------------------------------------------------------|-------------------------------------|
|---------------------------------------------------------------------|-------------------------------------|
|---------------------------------------------------------------------|-------------------------------------|
|---------------------------------------------------------------------|--4------4-4-4----4--4--6-6-6-6-6-6--|
|--7-----7----7--7----7--7------7---------7----7-----7-------7----7---|--2------2-2-2----2--2--4-4-4-4-4-4--|
|--5-----5----5--5----5--5------5---------5----5-----5-------5----5---|-------------------------------------|


  F#5
  T  T T  T T  T T  T T  T T  T T  T T  T T  T T  T T  T T  T T  T T  T T  T T  T
|-9-12p9----9-12p9----9-12p9----9-12p9----9-12p9----9-12p9----9-12p9----9-12p9----|
|--------12--------12--------12--------12--------12--------12--------12--------12-|
|---------------------------------------------------------------------------------|
|---------------------------------------------------------------------------------|
|---------------------------------------------------------------------------------|
|---------------------------------------------------------------------------------|
|
| PM-------------------------------------------------------------------------------
| E         S    S    E         S    S    E         S    S    E         S    S
|---------------------------------------------------------------------------------|
|---------------------------------------------------------------------------------|
|---------------------------------------------------------------------------------|
|---------------------------------------------------------------------------------|
|-4---------4----4----4---------4----4----4---------4----4----4---------4----4----|
|-2---------2----2----2---------2----2----2---------2----2----2---------2----2----|


  E/G#
  T  T T  T T  T T  T T  T T  T T  T T  T T  T T  T T  T T  T T  T T  T T  T T  T
|-9-12p9----9-12p9----9-12p9----9-12p9----9-12p9----9-12p9----9-12p9----9-12p9-------|
|--------12--------12--------12--------12--------12--------12--------12--------12----|
|------------------------------------------------------------------------------------|
|------------------------------------------------------------------------------------|
|------------------------------------------------------------------------------------|
|------------------------------------------------------------------------------------|
|
|----------------------------------------------------------------------------|
| E         S    S    E         S    S    E         S    S    E         S    S
|------------------------------------------------------------------------------------|
|------------------------------------------------------------------------------------|
|------------------------------------------------------------------------------------|
|------------------------------------------------------------------------------------|
|-7---------7----7----7---------7----7----7---------7----7----7---------7----7-------|
|-4---------4----4----4---------4----4----4---------4----4----4---------4----4-------|


  A5
  T  T T  T T  T T  T T  T T  T T  T T  T T  T T  T T  T T  T T  T T  T T  T T  T
|-9-12p9----9-12p9----9-12p9----9-12p9----9-12p9----9-12p9----9-12p9----9-12p9----|
|--------12--------12--------12--------12--------12--------12--------12--------12-|
|---------------------------------------------------------------------------------|
|---------------------------------------------------------------------------------|
|---------------------------------------------------------------------------------|
|---------------------------------------------------------------------------------|
|
| PM-------------------------------------------------------------------------|
| E         S    S    E         S    S    E         S    S    E         S    S
|---------------------------------------------------------------------------------|
|---------------------------------------------------------------------------------|
|---------------------------------------------------------------------------------|
|---------------------------------------------------------------------------------|
|-7---------7----7----7---------7----7----7---------7----7----7---------7----7----|
|-5---------5----5----5---------5----5----5---------5----5----5---------5----5----|


  B5
   ~~~~~~~~~~~~~~~~
   W           +W
|-14--------|-(14)----|
|-----------|---------|
|-----------|---------|
|-----------|---------|
|-----------|---------|
|-----------|---------|
|
|  W           +W
|-----------|---------|
|-----------|---------|
|--4--------|--(4)----|
|--4--------|--(4)----|
|--2--------|--(2)----|
|-----------|---------|


  F#5                                         A5 E5   F#5
  Gtrs I, II
  W          +W           +W           +H     Q  Q    E. S H.
|----------|------------|------------|--------------|------------*|
|----------|------------|------------|--------------|------------*|
|----------|------------|------------|--------2-----|------------*|
|-4--------|-(4)--------|-(4)--------|-(4)----2--2--|-4----------*|
|-4--------|-(4)--------|-(4)--------|-(4)----0--2--|-4----------*|
|-2--------|-(2)--------|-(2)--------|-(2)-------0--|-2----------*|


Duration Legend
---------------
W - whole; H - half; Q - quarter; E - 8th; S - 16th; T - 32nd; X - 64th; a - acciaccatura
+ - note tied to previous; . - note dotted; .. - note double dotted
Uncapitalized letters represent notes that are staccato (1/2 duration)
Irregular groupings are notated above the duration line
Duration letters will always appear directly above the note/fret number it represents the
duration for.  Duration letters with no fret number below them represent rests.  Multi-
bar rests are notated in the form Wxn, where n is the number of bars to rest for.  Low
melody durations appear below the staff

Tablature Legend
----------------
 h   - hammer-on
 p   - pull-off
 b   - bend
 pb  - pre-bend
 r   - bend release (if no number after the r, then release immediately)
 /\  - slide into or out of (from/to "nowhere")
 s   - legato slide
 S   - shift slide
  - natural harmonic
[n]  - artificial harmonic
n(n) - tapped harmonic
 ~   - vibrato
 tr  - trill
 T   - tap
 TP  - trem. picking
 PM  - palm muting
\n/  - tremolo bar dip; n = amount to dip
 \n  - tremolo bar down
 n/  - tremolo bar up
/n\  - tremolo bar inverted dip
 =   - hold bend; also acts as connecting device for hammers/pulls
 <>  - volume swell (louder/softer)
 x   - on rhythm slash represents muted slash
 o   - on rhythm slash represents single note slash

Misc Legend
-----------
 |  - bar
||  - double bar
||o - repeat start
o|| - repeat end
*|  - double bar (ending)
 :  - bar (freetime)
 $  - Segno
 &  - Coda
Tempo markers -  = BPM(8/16=s8/s16), where s8 = swing 8ths, s16 = swing 16ths


***************************************************************************************
* Generated using Power Tab Editor by Brad Larsen - http://powertab.guitarnetwork.org *
***************************************************************************************                                

            
            
Suggest correction
Creating personal tab
Creating personal tab
You can edit any tab online and save it as your Personal.

You can edit, replace or remove any tab part or add personal notes – all changes will be seen only by you.

Personal tabs can be accessed anytime from any device, even offline.
Learn more »
comments
print report bad tab
7 comments total. Showing first comments.
0 reply
TheTrooper5 92 Jun 02, 2007 03:25 AM

What the hell is this? This isn't flight of icarus, this is some crap by MCR.

0 reply
arsonite 171 Jun 02, 2007 11:47 AM

Umm...wrong tab.

0 reply
YoghurtPeople 176 Jun 02, 2007 06:11 PM

gimme a sec

guest
You may want to rate the tab now too:
select rating
Wanna post a correction for this tab? Suggest correction