Oops, an error
Loading. Please wait.

For The Greater Good Of God Bass Tab

version 2
version 2

Whole song

Interactive

2,242 views 3 this week
2 commentsread comments
1 2 3 4 5
accurate
x 3
add to favorites
launch autoscroll
font size
0
reset
guitar tuner
Autoscroll
slow
fast
+/-
esc
set tempo
stop
Help us to improve Ultimate-Guitar.com Take our survey!
×
Author
-------------------------------------------------------------------------------
	           FOR THE GREATER GOOD OF GOD - IRON MAIDEN
-------------------------------------------------------------------------------

Tabbed by Aukustus

I used live versions and album version to tab out the bass part.

Intro
G|-------------7s9---------------5s7---------------7s9----------------12s14--|
D|---------------------------------------------------------------------------|
A|---------7---5s7-----------7---3s5-----------7---5s7------------7---10s12--|
E|--0--5h7------------0--5h7------------0--5h7-------------0--5h7------------|

Bridge 
G|---------------------------------------------------------------------------|
D|-----5-4-------5-4------5-4----7-4-5-----5-4-------5-4------5-4---5--------|
A|---------7---------7--------7----------------7---------7--------7---5s7----|
E|--0---------0---------0---------------0---------0---------0----------------|

Clean verse 
G|-------9----9---------5----5------------------------7-----7----------------|
D|-----9----9---------5----5-----------5----5-------7-----7------------------|
A|--7--------------3-----------------5----5------5---------------------------|
E|--------------------------------3------------------------------------------|

Distortion verse, ( ) second verse second time, third verse sixth time
G|---------------------------------------------------------------------------|
D|---------------------------------(5-5-5-5-5-5-5-5)-------------------------|
A|--7-7-7-7-7-7-7-7-3-3-3-3-3-3-3-3-----------------5-5-5-5-5-5-5-5----------|
E|----------------------------------3-3-3-3-3-3-3-3--------------------------|

Pre-pre-chorus Played after first and third verses
G|---------------------------------------------------------------------------|
D|---------------------------------------------------------------------------|
A|--0-0-0-0-0-0-0-0-0-0-0-0-0-0-0-0-3-3-3-3-3-3-3-3-5-5-5-5-5-5-5-5----------|
E|---------------------------------------------------------------------------|

Pre-chorus 
G|---------------------------------------------------------------------------|
D|---------------------------------------------------------------------------|
A|--7-777-777-777-777-777-777-777-773-333-333-333-33--------5-555-55---------|
E|--------------------------------------------------3-333-33-----------------|

G|---------------------------------------------------------------------------|
D|---------------------------------------------------------------------------|
A|--7-777-777-777-777-777-777-777-770-000-000-000-003-333-335-555-55---------|
E|---------------------------------------------------------------------------|

Chorus 
G|---------------------------------------------------------------------------|
D|---------------------------------------------------------------------------|
A|--7-777-777-777-777777777777777773-333-333-333-33--------55555555----------|
E|-------------------------------------------------33333333------------------|

G|---------------------------------------------------------------------------|
D|---------------------------------------------------------------------------|
A|--7-777-777-777-777777777777777770-000-000-000-003333333355555555----------|
E|---------------------------------------------------------------------------|

First solo backing 
G|---------------------------------------------------------------------------|
D|---------------------------------------------------------------------------|
A|--7-77777-77777-77777-77777-77777-7777------5-5555-------------------------|
E|--------------------------------------3-3333-------------------------------|

G|---------------------------------------------------------------------------|
D|---------------------------------------------------------------------------|
A|--0-00000-00000-00000-00000-00000-00003-33335-5555-------------------------|
E|---------------------------------------------------------------------------|

Second solo backing 
G|---------------------------------------------------------------------------|
D|---------------------------------------------------------------------------|
A|---------------------------------------------------------------------------|
E|--787000750000530000320000-------------------------------------------------|

The riff at 6:16, again at 6:44 
G|---------------------------------------------------------------------------|
D|---------------------------------------------------------------------------|
A|--22-2-233-3-3-------------------------------------------------------------|
E|--------------33-3-3s5-5-5-------------------------------------------------|

The riff at 6:57, notes in ( ) played second time.
G|---------------------------------------------------------------------------|
D|-------------------------(55-5-55-5-5)-------------------------------------|
A|--77-7-77-7-7-33-3-33-3-3-------------55-5-55-5-5--------------------------|
E|--------------------------33-3-33-3-3--------------------------------------|

Clean verse last part
G|------2----2---------2----2---------5----5---------7---7-------------------|
D|----2----2---------2----2---------5----5---------7-------------------------|
A|-0--------------0--------------3--------------5----------------------------|
E|---------------------------------------------------------------------------|

Song structure:

Intro
Bridge x 2
Clean verse x 8
Distortion verse x 4
Pre-pre-chorus x 1
Pre-chorus x 1
Distortion verse x 4
Pre-chorus x 1
Distortion verse x 8
Pre-pre-chorus x 1
Pre-chorus x 2
Chorus x 2
Bridge x 8
First solo backing x 4
Second solo backing x 4
Riff at 6:16 x 4
Second solo backing x 4
Riff at 6:44 x 4
Riff at 6:57 x 4
Pre-chorus x 2
Chorus x 2
Clean verse x 3
Clean vese last part x 1
Bridge later half x 1
Suggest correction
Give kudos to tab author, rate the tab!
1 2 3 4 5
comments
print report bad tab
2 comments total.
0 reply
Aukustus 334 wrote on September 9 2010, 08:49 am

First solo backing second half is actually 0 fret, not 7 fret.

0 reply
nacho.rock.cabj 454 wrote on November 10 2014, 08:17 pm

Why you didn't tab any power chord, Steve uses many in the song.

guest
You may want to rate the tab now too:
select rating
Wanna post a correction for this tab? Suggest correction