Oops, an error
Loading. Please wait.

Futureal Bass Tab

version 2
version 2

Whole song

Interactive

3,174 views 6 this week
no commentswrite comment
1 2 3 4 5
excellent!
x 4
add to favorites
launch autoscroll
font size
0
reset
guitar tuner
Autoscroll
slow
fast
+/-
esc
set tempo
stop
Help us to improve Ultimate-Guitar.com Take our survey!
×
Contributor
Futureal by Iron Maiden
Standard Tuning

G:----------9--|------------5|------------7|
D:----------9--|------------5|------------7|
A:----------7--|7-7-7-7-7-7-3|3-3-3-3-3-3-5|
E:-------------|-------------|-------------|

 |-------------|------------9|------------5|
 |-------------|------------9|------------5|
 |5-5-5-5-5-5-5|5-5-5-5-5-5-7|7-7-7-7-7-7-3|
 |-------------|-------------|-------------|

 |------------2|-------------|------------9|
 |------------2|-------------|------------9|
 |3-3-3-3-3-3-0|0-0-0-0-0-0-0|0-0-0-0-0-0-7|
 |-------------|-------------|-------------|

 |------------5|------------7|-------------|
 |------------5|------------7|-------------|
 |7-7-7-7-7-7-3|3-3-3-3-3-3-5|5-5-5-5-5-5-5|
 |-------------|-------------|-------------|

 |------------9|------------5|------------2|
 |------------9|------------5|------------2|
 |5-5-5-5-5-5-7|7-7-7-7-7-7-3|3-3-3-3-3-3-0|
 |-------------|-------------|-------------|


Vocals
 |-------------|------------9|------------9|
 |-------------|------------9|------------9|
 |0-0-0-0-0-0-0|0-0-0-0-0-0-7|7-7-7-7-7-7-7|
 |-------------|-------------|-------------|


 |------------9|-------------|------------5|
 |------------9|-------------|------------5|
 |7-7-7-7-7-7-7|7-7-7-7-7-7-7|7---7---7---3|
 |-------------|-------------|-------------|

 |------------7|------------9|------------9|
 |------------7|------------9|------------9|
 |3---3-3-3-3-5|5-5-5-5-5-5-7|7-7-7-7-7-7-7|
 |-------------|-------------|-------------|

 |------------9|------------9|------------9|
 |------------9|------------9|------------9|
 |7-7-7-7-7-7-7|7-7-7-7-7-7-7|7-7-7-7-7-7-7|
 |-------------|-------------|-------------|

 |-------------|------------5|------------7|
 |-------------|------------5|------------7|
 |7-7-7-7-7-7-7|7---7---7---3|3-3-3-3-3-3-5|
 |-------------|-------------|-------------|

 |------------9|------------9|------------5|
 |------------9|------------9|------------5|
 |5-5-5-5-5-5-7|7-7-7-7-7-7-7|7-7-7-7-7-7-3|
 |-------------|-------------|-------------|

Bridge
 |------------7|------------5|------------7|
 |------------7|------------5|------------7|
 |3-3-3-3-3-3-5|5-5-5-5-5-5-3|3-3-3-3-3-3-5|
 |-------------|-------------|-------------|

 |-------------|
 |------------2|
 |5-5-5-5-5-5--|
 |-------------|

Chorus

------0------------|-------------------|------0------------|
2-2-4-------0--2--0|---0-----0--2--4--2|2--4--------0--2--0|
---------3---------|2-----2------------|---------3---------|
-------------------|-------------------|-------------------|

---------0---------|------0------------|-------------------|
---0--------4--2--2|2--4--------0--2--0|---0-----0--2--4--2|
2-----2------------|---------3---------|2-----2------------|
-------------------|-------------------|-------------------|

------0------------|----------0--------|
2--4--------0--2--0|---0----------4---2|
---------3---------|2-----2------------|
-------------------|-------------------|

Repeat Vocals, Bridge and Chorus

 |------------------9|------------------5|
 |------------------9|------------------5|
 |7--7--7--7--7--7--7|7--7--7--7--7--7--3|
 |-------------------|-------------------|

 |-----------------9|------------------9|------------------9|
 |-----------------9|------------------9|------------------9|
 |3--3-------------7|7--7--7--7--7--7--7|7--7--7--7--7--7--7|
 |------3----3--3---|-------------------|-------------------|

 |------------------5|-----------------7|------2-----------7|
 |------------------5|-----------------7|------2-----------7|
 |7--7--7--7--7--7--3|3--3-------------5|5--5--0-----0--0--5|
 |-------------------|------3--3----3---|-------------------|

 |------------------7|------------------5|-----------------9|
 |0-----0--0--0--0--7|0-----0--0--0--0--5|-----------------9|
 |---5--------------5|---5--------------3|3--3-------------7|
 |-------------------|-------------------|------3----3--3---|

|------------------9|------------------9|------------------5|
|------------------9|------------------9|------------------5|
|7--7--7--7--7--7--7|7--7--7--7--7--7--7|7--7--7--7--7--7--3|
|-------------------|-------------------|-------------------|

|------------------9|------------------9|------------------9|
|------------------9|------------------9|------------------9|
|3--3--------------7|7--7--7--7--7--7--7|7--7--7--7--7--7--7|
|------3-----3--3---|-------------------|-------------------|

|------------------5|------------------7|------2-----------7|
|------------------5|------------------7|------2-----------7|
|7--7--7--7--7--7--3|3--3--------------5|5--5--0-----0--0--5|
|-------------------|------3-----3--3---|-------------------|

|------------------7|------------------5|------------------9|
|0-----0--0--0--0--7|0-----0--0--0--0--5|------------------9|
|---5--------------5|---5--------------3|3--3--------------7|
|-------------------|-------------------|------3-----3--3---|

|------------------9|------------------9|
|------------------9|------------------9|
|7--7--7--7--7--7--7|7--7--7--7--7--7--7|
|-------------------|-------------------|

|-------------------|12------9----11----|-------------------|
|-------------------|10------7----9---10|-------------------|
|7--7--7--7--7--7--7|-----------------10|-------------------|
|-------------------|-----------------8-|8--8--8--8--8--8--8|

|--12------9----11--||
|--10------7----9---||
|-------------------||
|-------------------||

Thanks, please rate it after you learn it.
_TheBassist01_
Suggest correction new What's this?
You can suggest a correction to this tab. Community and Mods will review your correction and vote to approve or reject it.
comments
print report bad tab
guest
You may want to rate the tab now too:
select rating
Please do not post tabs as comments. Select "correction" instead!