Oops, an error
Loading. Please wait.

Genghis Khan tab

version 3
version 3
523 views 3 this week
no commentswrite comment
1 2 3 4 5
x 4
add to favorites
×
Save as Personal and add changes to this tab that will be seen only by you. Learn more ›
×
You can save this tab as Personal to edit and correct it or add notes. All changes will be seen only by you. Learn more »
launch autoscroll
font size
0
reset
how to read this tab
guitar tuner
backing track
0:00
0:00
edit
Autoscroll
slow
fast
+/-
esc
set tempo
stop
Author
Difficulty
                                 Genghis Khan                                   


                                  Iron Maiden

Instruments:
- G #1
- G #2
- G #3


Guitar #1:

Adrian Smith

            Intro                                                  
            |---3---| |-3-| |-3-| |-3-| |-3-| |-3-| |-3-| |--3--|  
     S      S     S S S S S S S S S S S S S S S S S S S S S  S  S  
E||----||---------------------------------------------------------|
B||----||---------------------------------------------------------|
G||----||*--------------------------------------------------------|
D||----||*--0-----0-0-7-7-7-5-5-5-4-4-4-2-2-2-0-0-0---------------|
A||----||-------------------------------------------3-3-3-0h-3p-0-|
E||----||---------------------------------------------------------|


                                            Riff A                             
  |--3--|  |--3--|  |--3--|  |--3--|               |-3-|                       
  E  E  E  E  E  E  E  E  E  E  E  E        E      S S S E  E  S  S E  S S E   
---------------------------------------||-------------------------------------|
---------------------------------------||-------------------------------------|
--------------------------------------*||*------------------------------------|
-----------------------------2--2--2--*||*--0------0-0-0-0--5--5h-7-5--3-5-3--|
--3--3--x--5--5--x--7--7--x--3--0--3---||-------------------------------------|
--1--1--x--3--3--x--5--5--x------------||-------------------------------------|


     |-3-|                             |-3-|                      
  E  S S S E  E  S  S E  Q          E  S S S E  E  S  S E  Q      
--------------------------------||-------------------------------|
--------------------------------||-------------------------------|
-------------------------------*||-------------------------------|
--0--0-0-0-0--5--5h-7-5--3~----*||--0--0-0-0-0--5--5h-7-5--3~----|
--------------------------------||-------------------------------|
--------------------------------||-------------------------------|


    Riff B                                                               
           |-3-|                            |-3-|                        
    E      S S S E  E  S  S E  S S E     E  S S S E  E  S  S E  Q        
|-------------------------------------|--------------------------------||
|-------------------------------------|--------------------------------||
|*------------------------------------|-------------------------------*||
|*------------------------------------|-------------------------------*||
|---0------3-3-3-3--5--5h-7-5--3-5-3--|--0--3-3-3-3--5--5h-7-5---------||
|-------------------------------------|-------------------------3~-----||


                                    Riff A                             
     |-3-|                                 |-3-|                       
  E  S S S E  E  S  S E  Q          E      S S S E  E  S  S E  S S E   
-------------------------------||-------------------------------------|
-------------------------------||-------------------------------------|
-------------------------------||*------------------------------------|
-------------------------------||*--0------0-0-0-0--5--5h-7-5--3-5-3--|
--0--3-3-3-3--5--5h-7-5--------||-------------------------------------|
-------------------------3~----||-------------------------------------|


     |-3-|                           |-3-|                       
  E  S S S E  E  S  S E  Q        E  S S S E  E  S  S E  S S E   
-------------------------------|--------------------------------|
-------------------------------|--------------------------------|
-------------------------------|--------------------------------|
--0--0-0-0-0--5--5h-7-5--3~----|--0--0-0-0-0--5--5h-7-5--3-5-3--|
-------------------------------|--------------------------------|
-------------------------------|--------------------------------|


                                    Riff B                             
     |-3-|                                 |-3-|                       
  E  S S S E  E  S  S E  Q          E      S S S E  E  S  S E  S S E   
-------------------------------||-------------------------------------|
-------------------------------||-------------------------------------|
-------------------------------||*------------------------------------|
--0--0-0-0-0--5--5h-7-5--3~----||*------------------------------------|
-------------------------------||---0------3-3-3-3--5--5h-7-5--3-5-3--|
-------------------------------||-------------------------------------|


     |-3-|                             |-3-|                      
  E  S S S E  E  S  S E  Q          E  S S S E  E  S  S E  Q      
--------------------------------||-------------------------------|
--------------------------------||-------------------------------|
-------------------------------*||-------------------------------|
-------------------------------*||-------------------------------|
--0--3-3-3-3--5--5h-7-5---------||--0--3-3-3-3--5--5h-7-5--------|
-------------------------3~-----||-------------------------3~----|


    Riff C                                                            
           |-3-|          |-3-|             |-3-|                     
    E      S S S E  E  E  S S S E  E     E  S S S E  E  E.  E.  E   3x
|-------------------------------------|-----------------------------||
|-------------------------------------|-----------------------------||
|*------------------------------------|-----------------5---4------*||
|*--0------5-5-5-5--7--0--8-8-8-7--5--|--0--8-8-8-7--5--3---2---5--*||
|-------------------------------------|-------------------------3---||
|-------------------------------------|-----------------------------||


     |-3-|          |-3-|             |-3-|        
  E  S S S E  E  E  S S S E  E     E  S S S E  E   
--------------------------------|-----------------|
--------------------------------|-----------------|
--------------------------------|-----------------|
--0--5-5-5-5--7--0--8-8-8-7--5--|--0--8-8-8-7--5--|
--------------------------------|-----------------|
--------------------------------|-----------------|


    Riff D                                              
    E      S S S S E  S S S S E  S S S S S S S S S S    
|-----------------------------------------------------||
|-----------------------------------------------------||
|*---------------------------------------------------*||
|*--0------0-3-2---0--0-3-2--------------2-2-2-3-2---*||
|----------------3----------3-0--0-2-3-5-----------3--||
|-----------------------------------------------------||


   E  S S S S E  S S S S E  S S S S E  S S S S    
------------------------------------------------||
------------------------------------------------||
*----------------------------------------------*||
*--0--0-3-2-0-5--5-2-3-5-3--3-3-2-0-2--2-3-2---*||
---------------------------------------------3--||
------------------------------------------------||


   E  S S S S E  S S S S E  S S S S S S S S S S    
-------------------------------------------------||
-------------------------------------------------||
*-----------------------------------------------*||
*--0--0-3-2---0--0-3-2--------------2-2-2-3-2---*||
------------3----------3-0--0-2-3-5-----------3--||
-------------------------------------------------||


                                                    Riff E             
   E  S S S S E  S S S S E  S S S S E  S S S S      E         S S S S  
------------------------------------------------||---------|----------|
------------------------------------------------||---------|----------|
*----------------------------------------------*||---------|----------|
*--0--0-3-2-0-5--5-2-3-5-3--3-3-2-0-2--2-3-2---*||--0------|--0-3-2---|
---------------------------------------------3--||---------|--------3-|
------------------------------------------------||---------|----------|


  W.                  E  S S S S S S S E  S H.            
-------------------|-------------------------------------|
-------------------|-------------------------------------|
-------------------|-------------------------------------|
--2----------------|----------------------2-L------------|
--0----------------|--0--0-5-0-0-7-0-0-5--0-L------------|
-------------------|-------------------------------------|


  E  S S S S S S S E  S H.                E  S S S S S S S E  S H.            3x
-------------------------------------||---------------------------------------||
-------------------------------------||---------------------------------------||
----------------------2-L------------||*-------------------------------------*||
--0--0-5-0-0-7-0-0-5--0-L------------||*----------------------2-L------------*||
-------------------------------------||---0--0-5-0-0-7-0-0-5--0-L-------------||
-------------------------------------||---------------------------------------||


  E  S S S S S S S E  S H.              E  S S S S S S S E  S H.            
-------------------------------------|-------------------------------------|
-------------------------------------|-------------------------------------|
----------------------2-L------------|-------------------------------------|
--0--0-5-0-0-7-0-0-5--0-L------------|----------------------2-L------------|
-------------------------------------|--0--0-5-0-0-7-0-0-5--0-L------------|
-------------------------------------|-------------------------------------|


  Riff D                                    
  E         S S S S E  S S S S S S S S S S  
---------|---------------------------------|
---------|---------------------------------|
---------|---------------------------------|
--0------|--0-3-2--------------2-2-2-3-2---|
---------|--------3-0--0-2-3-5-----------3-|
---------|---------------------------------|


  E  S S S S E  S S S S E  S S S S S S S S S S  
-----------------------------------------------|
-----------------------------------------------|
-----------------------------------------------|
--0--0-3-2---0--0-3-2--------------2-2-2-3-2---|
-----------3----------3-0--0-2-3-5-----------3-|
-----------------------------------------------|


                                                     Riff F  
    E  S S S S E  S S S S E  S S S S E  S S S S      E       
|------------------------------------------------||---------|
|------------------------------------------------||---------|
|*----------------------------------------------*||---------|
|*--0--0-3-2-0-5--5-2-3-5-3--3-3-2-0-2--2-3-2---*||--0------|
|---------------------------------------------3--||---------|
|------------------------------------------------||---------|


  S S S S S S S S S S S S S S S S    S S S S S S S S S S S S S S S S  
----------------------------------|----------------------------------|
----------------------------------|----------------------------------|
----------4---------------4-------|----------5---------------5-------|
----5-4-5---5-4-5---5-4-5---5-4-5-|----5-4-5---5-4-5---5-4-5---5-4-5-|
--7---------------7---------------|--7---------------7---------------|
----------------------------------|----------------------------------|


  S S S S S S S S S S S S S S S S    S S S S S S S S S S S S S S S S  
----------------------------------|----------------------------------|
----------------------------------|----------------------------------|
----------4---------------4-------|----------5---------------5-------|
----5-4-5---5-4-5---5-4-5---5-4-5-|----5-4-5---5-4-5---5-4-5---5-4-5-|
--7---------------7---------------|--7---------------7---------------|
----------------------------------|----------------------------------|


  S S S S S S S S S S S S S S S S    S S S S S S S S S S S S S S S S  
----------------------------------|----------------------------------|
----------------------------------|----------------------------------|
----------4---------------4-------|----------4---------------4-------|
----5-4-5---5-4-5---5-4-5---5-4-5-|----5-4-5---5-4-5---5-4-5---5-4-5-|
--7---------------7---------------|--7---------------7---------------|
----------------------------------|----------------------------------|


          Riff G                                                           
  S S S S S      S S S S S S S S S S S    S S S S S S S S S S S S S S S S  
---------------------------------------|----------------------------------|
---------------------------------------|----------------------------------|
----------4--------------------4-------|----------5---------------5-------|
----5-4-5--------5-4-5---5-4-5---5-4-5-|----5-4-5---5-4-5---5-4-5---5-4-5-|
--7--------------------7---------------|--7---------------7---------------|
---------------------------------------|----------------------------------|


  S S S S S S S S S S S S S S S S    S S S S S S S S S S S S S S S S  
----------------------------------|----------------------------------|
----------------------------------|----------------------------------|
----------4---------------4-------|----------5---------------5-------|
----5-4-5---5-4-5---5-4-5---5-4-5-|----5-4-5---5-4-5---5-4-5---5-4-5-|
--7---------------7---------------|--7---------------7---------------|
----------------------------------|----------------------------------|


  S S S S S S S S S S S S S S S S    S S S S S S S S S S S S S S S S  
----------------------------------|----------------------------------|
----------------------------------|----------------------------------|
----------4---------------4-------|----------4---------------4-------|
----5-4-5---5-4-5---5-4-5---5-4-5-|----5-4-5---5-4-5---5-4-5---5-4-5-|
--7---------------7---------------|--7---------------7---------------|
----------------------------------|----------------------------------|


  Interludio                                                                   
  S          S S S S S S S S S S S S S S S    S S S S S S S S S S S S S S S S  
-------------------------------------------|----------------------------------|
-------------------------------------------|----------------------------------|
-------------------4---------------4-------|----------5---------------5-------|
-------------5-4-5---5-4-5---5-4-5---5-4-5-|----5-4-5---5-4-5---5-4-5---5-4-5-|
--7------------------------7---------------|--7---------------7---------------|
-------------------------------------------|----------------------------------|


  S S S S S S S S S S S S S S S S    S S S S S S S S S S S S S S S S  
----------------------------------|----------------------------------|
----------------------------------|----------------------------------|
----------4---------------4-------|----------5---------------5-------|
----5-4-5---5-4-5---5-4-5---5-4-5-|----5-4-5---5-4-5---5-4-5---5-4-5-|
--7---------------7---------------|--7---------------7---------------|
----------------------------------|----------------------------------|


  S S S S S S S S S S S S S S S S    S S S S S S S S S S S S S S S S  
----------------------------------|----------------------------------|
----------------------------------|----------------------------------|
----------4---------------4-------|----------4---------------4-------|
----5-4-5---5-4-5---5-4-5---5-4-5-|----5-4-5---5-4-5---5-4-5---5-4-5-|
--7---------------7---------------|--7---------------7---------------|
----------------------------------|----------------------------------|


  S S S S S S S S S S S S S S S S    S S S S S S S S S S S S S S S S  
----------------------------------|----------------------------------|
----------------------------------|----------------------------------|
----------4---------------4-------|----------5---------------5-------|
----5-4-5---5-4-5---5-4-5---5-4-5-|----5-4-5---5-4-5---5-4-5---5-4-5-|
--7---------------7---------------|--7---------------7---------------|
----------------------------------|----------------------------------|


  S S S S S S S S S S S S S S S S    S S S S S S S S S S S S S S S S  
----------------------------------|----------------------------------|
----------------------------------|----------------------------------|
----------4---------------4-------|----------5---------------5-------|
----5-4-5---5-4-5---5-4-5---5-4-5-|----5-4-5---5-4-5---5-4-5---5-4-5-|
--7---------------7---------------|--7---------------7---------------|
----------------------------------|----------------------------------|


  S S S S S S S S S S S S S S S S    S S S S S S S S S S S S S S S S  
----------------------------------|----------------------------------|
----------------------------------|----------------------------------|
----------4---------------4-------|----------4---------------4-------|
----5-4-5---5-4-5---5-4-5---5-4-5-|----5-4-5---5-4-5---5-4-5---5-4-5-|
--7---------------7---------------|--7---------------7---------------|
----------------------------------|----------------------------------|


    Outro                                                                   
    S     S S S S S S S S S S S S S S S    S S S S S S S S S S S S S S S S  
|---------------------------------------|----------------------------------|
|---------------------------------------|----------------------------------|
|*--------------4---------------4-------|----------4---------------4-------|
|*--------5-4-5---5-4-5---5-4-5---5-4-5-|----5-4-5---5-4-5---5-4-5---5-4-5-|
|---7-------------------7---------------|--7---------------7---------------|
|---------------------------------------|----------------------------------|


  S S S S S S S S S S S S S S S S    S S S S S S S S S S S S S S S S    
----------------------------------|-----------------------------------||
----------------------------------|-----------------------------------||
----------4---------------4-------|----------4---------------4-------*||
----5-4-5---5-4-5---5-4-5---5-4-5-|----5-4-5---5-4-5---5-4-5---5-4-5-*||
--7---------------7---------------|--7---------------7----------------||
----------------------------------|-----------------------------------||


                                     ^                   
  S S S S S S S S S S S S S S S S    Q    H.             
----------------------------------|--------------------||
----------------------------------|--7----L------------||
----------4-----------------------|--4----L------------||
----5-4-5---5-4-5---5-4-5-7-5-4-5-|--5----L------------||
--7---------------7---------------|--x----L------------||
----------------------------------|--------------------||




Guitar #2:
                                
Dave Murray

            Intro                                                  
            |---3---| |-3-| |-3-| |-3-| |-3-| |-3-| |-3-| |--3--|  
     S      S     S S S S S S S S S S S S S S S S S S S S S  S  S  
E||----||---------------------------------------------------------|
B||----||---------------------------------------------------------|
G||----||*--------------------------------------------------------|
D||----||*--0-----0-0-7-7-7-5-5-5-4-4-4-2-2-2-0-0-0---------------|
A||----||-------------------------------------------3-3-3-0h-3p-0-|
E||----||---------------------------------------------------------|


                                            Riff A                             
  |--3--|  |--3--|  |--3--|  |--3--|               |-3-|                       
  E  E  E  E  E  E  E  E  E  E  E  E        E      S S S E  E  S  S E  S S E   
---------------------------------------||-------------------------------------|
---------------------------------------||-------------------------------------|
--------------------------------------*||*--7------7-7-7-7--7--7h-9-7--5-7-5--|
-----------------------------2--2--2--*||*------------------------------------|
--3--3--x--5--5--x--7--7--x--3--0--3---||-------------------------------------|
--1--1--x--3--3--x--5--5--x------------||-------------------------------------|


     |-3-|                             |-3-|                      
  E  S S S E  E  S  S E  Q          E  S S S E  E  S  S E  Q      
--------------------------------||-------------------------------|
--------------------------------||-------------------------------|
--7--7-7-7-7--7--7h-9-7--5~----*||--7--7-7-7-7--7--7h-9-7--5~----|
-------------------------------*||-------------------------------|
--------------------------------||-------------------------------|
--------------------------------||-------------------------------|


    Riff B                                                               
           |-3-|                            |-3-|                        
    E      S S S E  E  S  S E  S S E     E  S S S E  E  S  S E  Q        
|-------------------------------------|--------------------------------||
|-------------------------------------|--------------------------------||
|*------------------------------------|-------------------------------*||
|*---------5-5-5-5--7--7h-9-7--5-7-5--|-----5-5-5-5--7--7h-9-7--------*||
|---7---------------------------------|--7----------------------5~-----||
|-------------------------------------|--------------------------------||


                                    Riff A                             
     |-3-|                                 |-3-|                       
  E  S S S E  E  S  S E  Q          E      S S S E  E  S  S E  S S E   
-------------------------------||-------------------------------------|
-------------------------------||-------------------------------------|
-------------------------------||*--7------7-7-7-7--7--7h-9-7--5-7-5--|
-----5-5-5-5--7--7h-9-7--------||*------------------------------------|
--7----------------------5~----||-------------------------------------|
-------------------------------||-------------------------------------|


     |-3-|                           |-3-|                       
  E  S S S E  E  S  S E  Q        E  S S S E  E  S  S E  S S E   
-------------------------------|--------------------------------|
-------------------------------|--------------------------------|
--7--7-7-7-7--7--7h-9-7--5~----|--7--7-7-7-7--7--7h-9-7--5-7-5--|
-------------------------------|--------------------------------|
-------------------------------|--------------------------------|
-------------------------------|--------------------------------|


                                    Riff B                             
     |-3-|                                 |-3-|                       
  E  S S S E  E  S  S E  Q          E      S S S E  E  S  S E  S S E   
-------------------------------||-------------------------------------|
-------------------------------||-------------------------------------|
--7--7-7-7-7--7--7h-9-7--5~----||*------------------------------------|
-------------------------------||*---------5-5-5-5--7--7h-9-7--5-7-5--|
-------------------------------||---7---------------------------------|
-------------------------------||-------------------------------------|


     |-3-|                             |-3-|                      
  E  S S S E  E  S  S E  Q          E  S S S E  E  S  S E  Q      
--------------------------------||-------------------------------|
--------------------------------||-------------------------------|
-------------------------------*||-------------------------------|
-----5-5-5-5--7--7h-9-7--------*||-----5-5-5-5--7--7h-9-7--------|
--7----------------------5~-----||--7----------------------5~----|
--------------------------------||-------------------------------|


    Riff C                                                                  
           |-3-|           |--3--|              |--3--|                     
    E      S S S E  E  E   S  S  S E  E     E   S  S  S E  E  E.  E.  E   3x
|----------------------------------------|--------------------------------||
|----------------------------------------|--------------------------------||
|*---------7-7-7-7--9-----10-10-10-9--7--|-----10-10-10-9--7--5---4------*||
|*--7------------------7-----------------|--7-----------------3---2---5--*||
|----------------------------------------|----------------------------3---||
|----------------------------------------|--------------------------------||


     |-3-|           |--3--|              |--3--|        
  E  S S S E  E  E   S  S  S E  E     E   S  S  S E  E   
-----------------------------------|--------------------|
-----------------------------------|--------------------|
-----7-7-7-7--9-----10-10-10-9--7--|-----10-10-10-9--7--|
--7--------------7-----------------|--7-----------------|
-----------------------------------|--------------------|
-----------------------------------|--------------------|


    Riff D                                              
    E      S S S S E  S S S S E  S S S S S S S S S S    
|-----------------------------------------------------||
|-----------------------------------------------------||
|*---------------------------------------------------*||
|*--0------0-3-2---0--0-3-2--------------2-2-2-3-2---*||
|----------------3----------3-0--0-2-3-5-----------3--||
|-----------------------------------------------------||


   E  S S S S E  S S S S E  S S S S E  S S S S    
------------------------------------------------||
------------------------------------------------||
*-------------0--0-0-2-3-2--2-2-0--------------*||
*--0--0-3-2-0---------------------2-3--3-3-2-3-*||
------------------------------------------------||
------------------------------------------------||


   E  S S S S E  S S S S E  S S S S S S S S S S    
-------------------------------------------------||
-------------------------------------------------||
*-----------------------------------------------*||
*--0--0-3-2---0--0-3-2--------------2-2-2-3-2---*||
------------3----------3-0--0-2-3-5-----------3--||
-------------------------------------------------||


                                                    Riff E             
   E  S S S S E  S S S S E  S S S S E  S S S S      E         S S S S  
------------------------------------------------||---------|----------|
------------------------------------------------||---------|----------|
*-------------0--0-0-2-3-2--2-2-0--------------*||---------|----------|
*--0--0-3-2-0---------------------2-3--3-3-2-3-*||--0------|--0-3-2---|
------------------------------------------------||---------|--------3-|
------------------------------------------------||---------|----------|


  E  S S S S S S S E  E.  S S  S S E  S S  S S  
-----------------------------------------------|
-----------------------------------------------|
-----------------------------------------------|
-----------------------------------------------|
--0--0-5-0-0-7-0-0-5--0---0-3p-2---0--0-3p-2---|
---------------------------------3-----------3-|


  E  S S S S S S S E  E.  S S  S S E  S S  S S  
-----------------------------------------------|
-----------------------------------------------|
-----------------------------------------------|
-----------------------------------------------|
--0--0-5-0-0-7-0-0-5--0---0-3p-2---0--0-3p-2---|
---------------------------------3-----------3-|


  E  S S S S S S S E  E.  S S  S S E  S S  S S  
-----------------------------------------------|
-----------------------------------------------|
-----------------------------------------------|
--0--0-5-0-0-7-0-0-5--0---0-3p-2---0--0-3p-2---|
---------------------------------3-----------3-|
-----------------------------------------------|


    E  S S S S S S S E  E.  S S  S S E  S S  S S  3x
|-------------------------------------------------||
|-------------------------------------------------||
|*-----------------------------------------------*||
|*-----------------------------------------------*||
|---0--0-5-0-0-7-0-0-5--0---0-3p-2---0--0-3p-2----||
|----------------------------------3-----------3--||


  E  S S S S S S S E  E.  S S  S S E  S S  S S  
-----------------------------------------------|
-----------------------------------------------|
-----------------------------------------------|
--0--0-5-0-0-7-0-0-5--0---0-3p-2---0--0-3p-2---|
---------------------------------3-----------3-|
-----------------------------------------------|


                                                  Riff D  
  E  S S S S S S S E  E.  S S  S S E  S S  S S    E       
-----------------------------------------------|---------|
-----------------------------------------------|---------|
-----------------------------------------------|---------|
-----------------------------------------------|--0------|
--0--0-5-0-0-7-0-0-5--0---0-3p-2---0--0-3p-2---|---------|
---------------------------------3-----------3-|---------|


  S S S S E  S S S S S S S S S S  
---------------------------------|
---------------------------------|
---------------------------------|
--0-3-2--------------2-2-2-3-2---|
--------3-0--0-2-3-5-----------3-|
---------------------------------|


  E  S S S S E  S S S S E  S S S S S S S S S S  
-----------------------------------------------|
-----------------------------------------------|
-----------------------------------------------|
--0--0-3-2---0--0-3-2--------------2-2-2-3-2---|
-----------3----------3-0--0-2-3-5-----------3-|
-----------------------------------------------|


                                                     Riff F  
    E  S S S S E  S S S S E  S S S S E  S S S S      E       
|------------------------------------------------||---------|
|------------------------------------------------||---------|
|*-------------0--0-0-2-3-2--2-2-0--------------*||---------|
|*--0--0-3-2-0---------------------2-3--3-3-2-3-*||--7------|
|------------------------------------------------||--5------|
|------------------------------------------------||---------|


            PM PM PM PM PM ^ v ^ v       PM PM PM PM PM PM PM PM ^ v ^ v  
  E  S S E  S  S  E  S  S  S S S S    E  S  S  E  S  S  E  S  S  S S S S  
-----------------------------------|-------------------------------------|
-----------------------------------|-------------------------------------|
-----------------------------------|-------------------------------------|
--9--9-9-9--9--9--9--9--9--9-9-9-9-|--5--5--5--5--5--5--5--5--5--5-5-5-5-|
--7--7-7-7--7--7--7--7--7--7-7-7-7-|--3--3--3--3--3--3--3--3--3--3-3-3-3-|
-----------------------------------|-------------------------------------|


     PM PM PM PM PM PM PM PM ^ v         PM PM PM PM PM PM PM PM ^ v ^ v  
  E  S  S  E  S  S  E  S  S  S E.     E  S  S  E  S  S  E  S  S  S S S S  
-----------------------------------|-------------------------------------|
-----------------------------------|-------------------------------------|
-----------------------------------|-------------------------------------|
-----------------------------------|--5--5--5--5--5--5--5--5--5--5-5-5-5-|
--7--7--7--7--7--7--7--7--7--7-9---|--3--3--3--3--3--3--3--3--3--3-3-3-3-|
--5--5--5--5--5--5--5--5--5--5-7---|-------------------------------------|


     PM PM PM PM PM PM PM PM PM PM PM       PM PM PM PM PM PM PM PM PM PM PM  
  E  S  S  E  S  S  E  S  S  E  S  S     E  S  S  E  S  S  E  S  S  E  S  S   
--------------------------------------|--------------------------------------|
--------------------------------------|--------------------------------------|
--------------------------------------|--------------------------------------|
--9--9--9--9--9--9--9--9--9--9--9--9--|--9--9--9--9--9--9--9--9--9--9--9--9--|
--7--7--7--7--7--7--7--7--7--7--7--7--|--7--7--7--7--7--7--7--7--7--7--7--7--|
--------------------------------------|--------------------------------------|


  Riff G                                                    
                       ^ v ^ v                     ^ v ^ v  
  E      S S Q    Q    S S S S    E  S S Q    Q    S S S S  
-------------------------------|---------------------------|
-------------------------------|---------------------------|
-------------------------------|---------------------------|
--9------9-9-9---------9-9-9-9-|--5--5-5-5---------5-5-5-5-|
--7------7-7-7---------7-7-7-7-|--3--3-3-3---------3-3-3-3-|
-------------------------------|---------------------------|


                   ^ v                       ^ v ^ v                          
  E  S S Q    Q    S E.     E  S S Q    Q    S S S S    E  S S H        Q     
-------------------------|---------------------------|-----------------------|
-------------------------|---------------------------|-----------------------|
-------------------------|---------------------------|-----------------------|
-------------------------|--5--5-5-5---------5-5-5-5-|--9--9-9-9-------------|
--7--7-7-7---------7-9---|--3--3-3-3---------3-3-3-3-|--7--7-7-7-------------|
--5--5-5-5---------5-7---|---------------------------|-----------------------|


                           Interludio                                       
  E  S S H        Q        H.             Q          H.             Q       
-----------------------|-------------------------|-------------------------|
-----------------------|--15b------------15br----|--13~------------12br----|
-----------------------|-------------------------|-------------------------|
--9--9-9-9-------------|-------------------------|-------------------------|
--7--7-7-7-------------|-------------------------|-------------------------|
-----------------------|-------------------------|-------------------------|


   H.            Q         H.            Q       S S S S S S S S S S S S Q     
------------------------|---------------------|--7---------------7------------|
--10~------------8br----|----------------8----|----8-7-8---8-7-8---8-7-8------|
------------------------|--9~-----------------|----------9---------------9----|
------------------------|---------------------|-------------------------------|
------------------------|---------------------|-------------------------------|
------------------------|---------------------|-------------------------------|


  Q    H.               H.             Q          H.             Q       
--------------------|-------------------------|-------------------------|
--------------------|--15b------------15br----|--13~------------12br----|
--L-----------------|-------------------------|-------------------------|
--------------------|-------------------------|-------------------------|
--------------------|-------------------------|-------------------------|
--------------------|-------------------------|-------------------------|


   H.            Q         H.            Q       S S S S H        S S S S  
------------------------|---------------------|--7-------7--------7-------|
--10~------------8br----|----------------8----|----8-7-8------------8-7-8-|
------------------------|--9~-----------------|---------------------------|
------------------------|---------------------|---------------------------|
------------------------|---------------------|---------------------------|
------------------------|---------------------|---------------------------|


                         Outro                                 
  H        H             W                   W                 
--7-----------------||--------------------|-------------------|
--------------------||--------------------|-------------------|
--------------------||*--9----------------|--7----------------|
--------------------||*--9----------------|--7----------------|
--------------------||---7----------------|--5----------------|
--------------------||--------------------|-------------------|


  W                   H.           E  E       W                 
-------------------|----------------------||-------------------|
-------------------|----------------------||-------------------|
--5----------------|--4------------------*||--9----------------|
--5----------------|--4------------5--4--*||--9----------------|
--3----------------|--2------------5--4---||--7----------------|
-------------------|---------------3--2---||--0----------------|


  W                  
-------------------||
-------------------||
--L----------------||
--L----------------||
--L----------------||
--L----------------||




Guitar #3:

Janick Gers

            Intro                                                  
            |---3---| |-3-| |-3-| |-3-| |-3-| |-3-| |-3-| |--3--|  
     S      S     S S S S S S S S S S S S S S S S S S S S S  S  S  
E||----||---------------------------------------------------------|
B||----||---------------------------------------------------------|
G||----||*--------------------------------------------------------|
D||----||*--0-----0-0-7-7-7-5-5-5-4-4-4-2-2-2-0-0-0---------------|
A||----||-------------------------------------------3-3-3-0h-3p-0-|
E||----||---------------------------------------------------------|


                                            Riff A                             
  |--3--|  |--3--|  |--3--|  |--3--|               |-3-|                       
  E  E  E  E  E  E  E  E  E  E  E  E        E      S S S E  E  S  S E  S S E   
---------------------------------------||-------------------------------------|
---------------------------------------||-------------------------------------|
--------------------------------------*||*------------------------------------|
-----------------------------2--2--2--*||*--0------0-0-0-0--5--5h-7-5--3-5-3--|
--3--3--x--5--5--x--7--7--x--3--0--3---||-------------------------------------|
--1--1--x--3--3--x--5--5--x------------||-------------------------------------|


     |-3-|                             |-3-|                      
  E  S S S E  E  S  S E  Q          E  S S S E  E  S  S E  Q      
--------------------------------||-------------------------------|
--------------------------------||-------------------------------|
-------------------------------*||-------------------------------|
--0--0-0-0-0--5--5h-7-5--3~----*||--0--0-0-0-0--5--5h-7-5--3~----|
--------------------------------||-------------------------------|
--------------------------------||-------------------------------|


    Riff B                                                               
           |-3-|                            |-3-|                        
    E      S S S E  E  S  S E  S S E     E  S S S E  E  S  S E  Q        
|-------------------------------------|--------------------------------||
|-------------------------------------|--------------------------------||
|*------------------------------------|-------------------------------*||
|*------------------------------------|-------------------------------*||
|---0------3-3-3-3--5--5h-7-5--3-5-3--|--0--3-3-3-3--5--5h-7-5---------||
|-------------------------------------|-------------------------3~-----||


                                    Riff A                             
     |-3-|                                 |-3-|                       
  E  S S S E  E  S  S E  Q          E      S S S E  E  S  S E  S S E   
-------------------------------||-------------------------------------|
-------------------------------||-------------------------------------|
-------------------------------||*------------------------------------|
-------------------------------||*--0------0-0-0-0--5--5h-7-5--3-5-3--|
--0--3-3-3-3--5--5h-7-5--------||-------------------------------------|
-------------------------3~----||-------------------------------------|


     |-3-|                           |-3-|                       
  E  S S S E  E  S  S E  Q        E  S S S E  E  S  S E  S S E   
-------------------------------|--------------------------------|
-------------------------------|--------------------------------|
-------------------------------|--------------------------------|
--0--0-0-0-0--5--5h-7-5--3~----|--0--0-0-0-0--5--5h-7-5--3-5-3--|
-------------------------------|--------------------------------|
-------------------------------|--------------------------------|


                                    Riff B                             
     |-3-|                                 |-3-|                       
  E  S S S E  E  S  S E  Q          E      S S S E  E  S  S E  S S E   
-------------------------------||-------------------------------------|
-------------------------------||-------------------------------------|
-------------------------------||*------------------------------------|
--0--0-0-0-0--5--5h-7-5--3~----||*------------------------------------|
-------------------------------||---0------3-3-3-3--5--5h-7-5--3-5-3--|
-------------------------------||-------------------------------------|


     |-3-|                             |-3-|                      
  E  S S S E  E  S  S E  Q          E  S S S E  E  S  S E  Q      
--------------------------------||-------------------------------|
--------------------------------||-------------------------------|
-------------------------------*||-------------------------------|
-------------------------------*||-------------------------------|
--0--3-3-3-3--5--5h-7-5---------||--0--3-3-3-3--5--5h-7-5--------|
-------------------------3~-----||-------------------------3~----|


    Riff C                                                            
           |-3-|          |-3-|             |-3-|                     
    E      S S S E  E  E  S S S E  E     E  S S S E  E  E.  E.  E   3x
|-------------------------------------|-----------------------------||
|-------------------------------------|-----------------------------||
|*------------------------------------|-----------------5---4------*||
|*--0------5-5-5-5--7--0--8-8-8-7--5--|--0--8-8-8-7--5--3---2---5--*||
|-------------------------------------|-------------------------3---||
|-------------------------------------|-----------------------------||


     |-3-|          |-3-|             |-3-|        
  E  S S S E  E  E  S S S E  E     E  S S S E  E   
--------------------------------|-----------------|
--------------------------------|-----------------|
--------------------------------|-----------------|
--0--5-5-5-5--7--0--8-8-8-7--5--|--0--8-8-8-7--5--|
--------------------------------|-----------------|
--------------------------------|-----------------|


    Riff D                                              
    E      S S S S E  S S S S E  S S S S S S S S S S    
|-----------------------------------------------------||
|-----------------------------------------------------||
|*---------------------------------------------------*||
|*--0------0-3-2---0--0-3-2--------------2-2-2-3-2---*||
|----------------3----------3-0--0-2-3-5-----------3--||
|-----------------------------------------------------||


   E  S S S S E  S S S S E  S S S S E  S S S S    
------------------------------------------------||
------------------------------------------------||
*----------------------------------------------*||
*--0--0-3-2-0-5--5-2-3-5-3--3-3-2-0-2--2-3-2---*||
---------------------------------------------3--||
------------------------------------------------||


   E  S S S S E  S S S S E  S S S S S S S S S S    
-------------------------------------------------||
-------------------------------------------------||
*-----------------------------------------------*||
*--0--0-3-2---0--0-3-2--------------2-2-2-3-2---*||
------------3----------3-0--0-2-3-5-----------3--||
-------------------------------------------------||


                                                    Riff E             
   E  S S S S E  S S S S E  S S S S E  S S S S      E         S S S S  
------------------------------------------------||---------|----------|
------------------------------------------------||---------|----------|
*----------------------------------------------*||---------|----------|
*--0--0-3-2-0-5--5-2-3-5-3--3-3-2-0-2--2-3-2---*||--0------|--0-3-2---|
---------------------------------------------3--||---------|--------3-|
------------------------------------------------||---------|----------|


  W.                  E  S S S S S S S E  S H.            
-------------------|-------------------------------------|
-------------------|-------------------------------------|
-------------------|-------------------------------------|
--2----------------|----------------------2-L------------|
--0----------------|--0--0-5-0-0-7-0-0-5--0-L------------|
-------------------|-------------------------------------|


  E  S S S S S S S E  S H.                E  S S S S S S S E  S H.            3x
-------------------------------------||---------------------------------------||
-------------------------------------||---------------------------------------||
----------------------2-L------------||*-------------------------------------*||
--0--0-5-0-0-7-0-0-5--0-L------------||*----------------------2-L------------*||
-------------------------------------||---0--0-5-0-0-7-0-0-5--0-L-------------||
-------------------------------------||---------------------------------------||


  E  S S S S S S S E  S H.              E  S S S S S S S E  S H.            
-------------------------------------|-------------------------------------|
-------------------------------------|-------------------------------------|
----------------------2-L------------|-------------------------------------|
--0--0-5-0-0-7-0-0-5--0-L------------|----------------------2-L------------|
-------------------------------------|--0--0-5-0-0-7-0-0-5--0-L------------|
-------------------------------------|-------------------------------------|


  Riff D                                    
  E         S S S S E  S S S S S S S S S S  
---------|---------------------------------|
---------|---------------------------------|
---------|---------------------------------|
--0------|--0-3-2--------------2-2-2-3-2---|
---------|--------3-0--0-2-3-5-----------3-|
---------|---------------------------------|


  E  S S S S E  S S S S E  S S S S S S S S S S  
-----------------------------------------------|
-----------------------------------------------|
-----------------------------------------------|
--0--0-3-2---0--0-3-2--------------2-2-2-3-2---|
-----------3----------3-0--0-2-3-5-----------3-|
-----------------------------------------------|


                                                     Riff F  
    E  S S S S E  S S S S E  S S S S E  S S S S      E       
|------------------------------------------------||---------|
|------------------------------------------------||---------|
|*----------------------------------------------*||---------|
|*--0--0-3-2-0-5--5-2-3-5-3--3-3-2-0-2--2-3-2---*||--7------|
|---------------------------------------------3--||--5------|
|------------------------------------------------||---------|


            PM PM PM PM PM ^ v ^ v       PM PM PM PM PM PM PM PM ^ v ^ v  
  E  S S E  S  S  E  S  S  S S S S    E  S  S  E  S  S  E  S  S  S S S S  
-----------------------------------|-------------------------------------|
-----------------------------------|-------------------------------------|
-----------------------------------|-------------------------------------|
--9--9-9-9--9--9--9--9--9--9-9-9-9-|--5--5--5--5--5--5--5--5--5--5-5-5-5-|
--7--7-7-7--7--7--7--7--7--7-7-7-7-|--3--3--3--3--3--3--3--3--3--3-3-3-3-|
-----------------------------------|-------------------------------------|


     PM PM PM PM PM PM PM PM ^ v         PM PM PM PM PM PM PM PM ^ v ^ v  
  E  S  S  E  S  S  E  S  S  S E.     E  S  S  E  S  S  E  S  S  S S S S  
-----------------------------------|-------------------------------------|
-----------------------------------|-------------------------------------|
-----------------------------------|-------------------------------------|
-----------------------------------|--5--5--5--5--5--5--5--5--5--5-5-5-5-|
--7--7--7--7--7--7--7--7--7--7-9---|--3--3--3--3--3--3--3--3--3--3-3-3-3-|
--5--5--5--5--5--5--5--5--5--5-7---|-------------------------------------|


     PM PM PM PM PM PM ^ v ^  v        PM PM PM PM PM PM PM PM PM PM PM  
  E  S  S  E  S  S  E  S S E  E     E  S  S  E  S  S  E  S  S  E  S  S   
---------------------------------|--------------------------------------|
---------------------------------|--------------------------------------|
---------------------------------|--------------------------------------|
--9--9--9--9--9--9--9--9-9-9--9--|--9--9--9--9--9--9--9--9--9--9--9--9--|
--7--7--7--7--7--7--7--7-7-7--7--|--7--7--7--7--7--7--7--7--7--7--7--7--|
---------------------------------|--------------------------------------|


  Riff G                                                                    
                PM PM PM PM PM ^ v ^ v              PM PM PM PM PM ^ v ^ v  
  E      S S E  S  S  E  S  S  S S S S    E  S S E  S  S  E  S  S  S S S S  
---------------------------------------|-----------------------------------|
---------------------------------------|-----------------------------------|
---------------------------------------|-----------------------------------|
--9------9-9-9--9--9--9--9--9--9-9-9-9-|--5--5-5-5--5--5--5--5--5--5-5-5-5-|
--7------7-7-7--7--7--7--7--7--7-7-7-7-|--3--3-3-3--3--3--3--3--3--3-3-3-3-|
---------------------------------------|-----------------------------------|


            PM PM PM PM PM ^ v                PM PM PM PM PM ^ v ^ v  
  E  S S E  S  S  E  S  S  S E.     E  S S E  S  S  E  S  S  S S S S  
---------------------------------|-----------------------------------|
---------------------------------|-----------------------------------|
---------------------------------|-----------------------------------|
---------------------------------|--5--5-5-5--5--5--5--5--5--5-5-5-5-|
--7--7-7-7--7--7--7--7--7--7-9---|--3--3-3-3--3--3--3--3--3--3-3-3-3-|
--5--5-5-5--5--5--5--5--5--5-7---|-----------------------------------|


     PM PM PM PM PM PM ^ v ^  v        PM PM PM PM PM PM ^ v ^  v   
  E  S  S  E  S  S  E  S S E  E     E  S  S  E  S  S  E  S S E  E   
---------------------------------|---------------------------------|
---------------------------------|---------------------------------|
---------------------------------|---------------------------------|
--9--9--9--9--9--9--9--9-9-9--9--|--9--9--9--9--9--9--9--9-9-9--9--|
--7--7--7--7--7--7--7--7-7-7--7--|--7--7--7--7--7--7--7--7-7-7--7--|
---------------------------------|---------------------------------|


   Interludio                                                                 
   H.             Q          H.             Q          H.             Q       
-------------------------|-------------------------|-------------------------|
--22b------------22br----|--20~------------19br----|--17~------------15br----|
-------------------------|-------------------------|-------------------------|
-------------------------|-------------------------|-------------------------|
-------------------------|-------------------------|-------------------------|
-------------------------|-------------------------|-------------------------|


   W                    W                   W                 
---------------------|-------------------|-------------------|
--13~----------------|-------------------|-------------------|
---------------------|-------------------|-------------------|
---------------------|-------------------|-------------------|
---------------------|-------------------|-------------------|
---------------------|-------------------|-------------------|


   H.             Q          H.             Q          H.             Q       
-------------------------|-------------------------|-------------------------|
--22b------------22br----|--20~------------19br----|--17~------------15br----|
-------------------------|-------------------------|-------------------------|
-------------------------|-------------------------|-------------------------|
-------------------------|-------------------------|-------------------------|
-------------------------|-------------------------|-------------------------|


   W                    W                   W                 
---------------------|-------------------|-------------------|
--13~----------------|-------------------|-------------------|
---------------------|-------------------|-------------------|
---------------------|-------------------|-------------------|
---------------------|-------------------|-------------------|
---------------------|-------------------|-------------------|


    Outro                                                     
    W                   W                   W                 
|--------------------|-------------------|-------------------|
|--------------------|-------------------|-------------------|
|*--9----------------|--7----------------|--5----------------|
|*--9----------------|--7----------------|--5----------------|
|---7----------------|--5----------------|--3----------------|
|--------------------|-------------------|-------------------|


  H.           E  E       W                   W                  
----------------------||-------------------|-------------------||
----------------------||-------------------|-------------------||
--4------------------*||-------------------|-------------------||
--4------------5--4--*||--2----------------|--L----------------||
--2------------5--4---||--2----------------|--L----------------||
---------------3--2---||--0----------------|--L----------------||




Duration Legend
---------------
W - whole
H - half
Q - quarter
E - 8th
S - 16th
T - 32nd
X - 64th
. - note dotted
|-n-|  - n-tuplets


Tablature Legend
----------------
L - tied note
x - dead note
g - grace note
(n) - ghost note
> - accentuded note
NH - natural harmonic
AH - artificial harmonic
TH - tapped harmonic
SH - semi harmonic
PH - pitch harmonic
h - hammer on
p - pull off
b - bend
br - bendRelease
pb - preBend
pbr - preBendRelease
brb - bendReleaseBend
\n/ - tremolo bar dip
\n - tremolo bar dive
-/n - tremolo bar Release up
/n\ - tremolo bar inverted dip
/n - tremolo bar return
-\n - tremolo bar Release down
S - shift slide
s - legato slide
/ -  slide into from below or out of upwards
\ -  slide into from above or out of downwards
~ - vibrato
W - wide vibrato
tr - trill
TP - tremolo picking
T - tapping
S - slap
P - pop
< - fade in
^ - brush up
v - brush down

            
            
Suggest correction
Creating personal tab
Creating personal tab
You can edit any tab online and save it as your Personal.

You can edit, replace or remove any tab part or add personal notes – all changes will be seen only by you.

Personal tabs can be accessed anytime from any device, even offline.
Learn more »
comments
print report bad tab
guest
You may want to rate the tab now too:
select rating
Wanna post a correction for this tab? Suggest correction