Oops, an error
Loading. Please wait.

Ghost Of The Navigator Bass Tab

version 1
version 1

Whole song

Interactive

3,360 views 9 this week
no commentswrite comment
1 2 3 4 5
please rate
add to favorites
launch autoscroll
font size
0
reset
guitar tuner
Autoscroll
slow
fast
+/-
esc
set tempo
stop
Help us to improve Ultimate-Guitar.com Take our survey!
×
Iron Maiden - Ghost Of The Navigator
Tabbed By: Dan
EMail: argybahji@hotmail.com


[Intro]
G|----------------------------------------------------------------
D|----------------------------------------------------------------
A|-5-------3-------5-------3-------1-------1-------5-------3------
E|----------------------------------------------------------------

G|----------------------------------------------------------------
D|----------------------------------------------------------------
A|-5-5-5-5-1-1-1-1-3-3-3-3-5-5-5-5-5-5-5-5-1-1-1-1-3-3-3-3-5-5-5-5
E|----------------------------------------------------------------

[Verse Part 1] ('I have sailed to many lands...')
G|----------------------------------------------------------------
D|----------------------------------------------------------------
A|-5-555-555-555-551-111-111-111-113-333-333-333-33--3---5---3---5
E|----------------------------------------------------------------

[Verse Part 2] ('Mysteries of time...')
G|----------------------------------------------------------------
D|----------------------------------------------------------------
A|-0-0-0-0-0-0-0-0-3-3-3-3-3-3-3-3-2-2-2-2-2-2-2-2-5-5-5-5-3-3-3-2
E|----------------------------------------------------------------

[Pre-Chorus] ('I see the ghosts of navigators...')
G|----------------------------------------------------------------
D|----------------------------------------------------------------
A|-----------------3-3-3-3-0-0-2-2-----------------3-3-3-3-0-0-2-2
E|-0-0-0-0-3-3-3-3-----------------0-0-0-0-3-3-3-3----------------

[Chorus] ('Take my heart and set it free...')
G|-------------------------------------------------------------------------
D|-------------------------------------------------------------------------
A|-55555555-33333333-55555555-33333333-11111111-11111111-55555555-33333333-
E|-------------------------------------------------------------------------

Structure:
==================
Intro		x1
Verse Part 1	x7
Verse Part 2	x4
Pre Chorus	x2
Chorus		x2
Verse Part 1	x4
Verse Part 2	x4
Pre Chorus	x2
Chorus		x2
Verse Part 1	x4
Suggest correction
Give kudos to tab author, rate the tab!
1 2 3 4 5
comments
print report bad tab
guest
You may want to rate the tab now too:
select rating
Wanna post a correction for this tab? Suggest correction