Oops, an error
Loading. Please wait.

Ghost Of The Navigator Tab

version 1
version 1

Whole song

Interactive

49,169 views 51 this week
8 commentsread comments
1 2 3 4 5
x 25
add to favorites
launch autoscroll
font size
0
reset
how to read this tab
guitar tuner
backing track
0:00
0:00
×
Best way to learn
"Ghost Of The Navigator"
Autoscroll
slow
fast
+/-
esc
set tempo
stop
[Intro]
    Guitar 1
e|-------5---3-------------|-------------------|-------5---3-------------|
B|--2/3----------6---5--6--|-------------------|--2/3----------6---5--6--|
G|-------------------------|--5----------------|-------------------------|
D|-------------------------|-------------------|-------------------------|
A|-------------------------|-------------------|-------------------------|
E|-------------------------|-------------------|-------------------------|
 ||
 || Guitar 2
e|-------------------------|-------------------|-------------------------|
B|-------------------------|-------------------|-------------------------|
G|--7----------------------|--5----------------|--7----------------------|
D|--7----------------------|--5----------------|--7----------------------|
A|--5----------------------|--3----------------|--5----------------------|
E|-------------------------|-------------------|-------------------------|

e|-------------------|-------3-----------------|-------3-----------------|
B|-------------------|-----------6---5---3-----|-----------6---5---3-----|
G|--5----------------|--2/3-----------------5--|--2/3-----------------5--|
D|-------------------|-------------------------|-------------------------|
A|-------------------|-------------------------|-------------------------|
E|-------------------|-------------------------|-------------------------|
|
|
e|-------------------|-------------------------|-------------------------|
B|-------------------|-------------------------|-------------------------|
G|--5----------------|--3----------------------|--3-------------------5--|
D|--5----------------|--3----------------------|--3-------------------5--|
A|--3----------------|--1----------------------|--1-------------------3--|
E|-------------------|-------------------------|-------------------------|

e|-------5---3-------------|-------------------|-------3-----------------|
B|--2/3----------6---5--6--|-------------------|--2/3------6---5---3-----|
G|-------------------------|--5----------------|----------------------5--|
D|-------------------------|-------------------|-------------------------|
A|-------------------------|-------------------|-------------------------|
E|-------------------------|-------------------|-------------------------|
|
|
e|-------------------------|-------------------|-------------------------|
B|-------------------------|-------------------|-------------------------|
G|--7----------------------|--5----------------|--7---7---7---7--7-------|
D|--7----------------------|--5----------------|--7---7---7---7--7-------|
A|--5----------------------|--3----------------|--5---5---5---5--5-------|
E|-------------------------|-------------------|-------------------------|

e|-------3-----------------|-------3-----------------|---------------3---------|
B|--2/3------6---5---3-----|--2/3------6---5---3-----|--2/3--5---6-------6--5--|
G|----------------------5--|----------------------5--|-------------------------|
D|-------------------------|-------------------------|-------------------------|
A|-------------------------|-------------------------|-------------------------|
E|-------------------------|-------------------------|-------------------------|
|
|
e|-------------------------|-----------------------|-----------------------|
B|-------------------------|-----------------------|-----------------------|
G|--3---3---3---3--3-------|--5---5---5---5--5-----|--7---7---7---7--7-----|
D|--3---3---3---3--3-------|--5---5---5---5--5-----|--7---7---7---7--7-----|
A|--1---1---1---1--1-------|--3---3---3---3--3-----|--5---5---5---5--5-----|
E|-------------------------|-----------------------|-----------------------|

e|-------3-----------------|-------3-----------------|-------3-----------------|
B|--2/3------6---5---3-----|--2/3------6---5---3-----|--2/3------6---5---3-----|
G|----------------------5--|----------------------5--|----------------------5--|
D|-------------------------|-------------------------|-------------------------|
A|-------------------------|-------------------------|-------------------------|
E|-------------------------|-------------------------|-------------------------|
|
|
e|-------------------------|-------------------------|-------------------------|
B|-------------------------|-------------------------|-------------------------|
G|--7---7---7---7--7-------|--3---3---3---3--3-------|--5---5---5---5--5-------|
D|--7---7---7---7--7-------|--3---3---3---3--3-------|--5---5---5---5--5-------|
A|--5---5---5---5--5-------|--1---1---1---1--1-------|--3---3---3---3--3-------|
E|-------------------------|-------------------------|-------------------------|

e|---------------3---------|-------------------|-------------------|
B|--2/3--5---6-------6--5--|-------------------|-------------------|
G|-------------------------|--7----------------|--3----------------|
D|-------------------------|--7----------------|--3----------------|
A|-------------------------|--5----------------|-------------------|
E|-------------------------|-------------------|-------------------|
|
|
e|-----------------------|-------------------|-------------------|
B|-----------------------|-------------------|-------------------|
G|--7---7---7---7--7-----|--7----------------|--3----------------|
D|--7---7---7---7--7-----|--7----------------|--3----------------|
A|--5---5---5---5--5-----|--5----------------|--1----------------|
E|-----------------------|-------------------|-------------------|

e|-------------------|---------6----8------|-------------------|
B|-------------------|--8------6----8------|-------------------|
G|--5----------------|--7------------------|--7----------------|
D|--5----------------|---------------------|--7----------------|
A|-------------------|---------------------|--5----------------|
E|-------------------|---------------------|-------------------|
|
|
e|-------------------|---------------------|-------------------|
B|-------------------|---------------------|-------------------|
G|--5----------------|--7------------------|--7----------------|
D|--5----------------|--7------------------|--7----------------|
A|--3----------------|--5------------------|--5----------------|
E|-------------------|---------------------|-------------------|


e|-------------------|-------------------|---------6----8------|
B|-------------------|-------------------|--6------6----8------|
G|--3----------------|--5----------------|--5------------------|
D|--3----------------|--5----------------|---------------------|
A|-------------------|-------------------|---------------------|
E|-------------------|-------------------|---------------------|
|
|
e|-------------------|-------------------|---------------------|
B|-------------------|-------------------|---------------------|
G|-------------------|--5----------------|--7------------------|
D|-------------------|--5----------------|--7------------------|
A|-------------------|--3----------------|--5------------------|
E|-------------------|-------------------|---------------------|

[Verse]
e|-------------------------------|-------------------------------|
B|-------------------------------|-------------------------------|
G|--7----------------------------|--3----------------------------|
D|--7----------------------------|--3----------------------------|
A|--5----5-5-5-5-5-5-5-5-5-5-5-5-|-------5-5-5-5-5-5-5-5-5-5-5-5-|
E|-------------------------------|-------------------------------|

e|-------------------------------|----------------------|
B|-------------------------------|----------------------|
G|--5----------------------------|--5------7----5---5---|
D|--5----------------------------|--5------7----5---5---|
A|-------5-5-5-5-5-5-5-5-5-5-5-5-|----------------------|
E|-------------------------------|----------------------|

[Bridge]
e|----------------------|----------------------|
B|----------------------|----------------------|
G|--2-------------------|--5-------------------|
D|--2-------------------|--5-------------------|
A|--0-------------------|--3-------------------|
E|----------------------|----------------------|

e|----------------------|---------------------|
B|----------------------|---------------------|
G|--4-------------------|--7------5------4----|
D|--4-------------------|--7------5------4----|
A|--2-------------------|--5------3------2----|
E|----------------------|---------------------|

On 2nd Time
e|----------------------|----------------------|
B|----------------------|----------------------|
G|--2-------------------|--5-------------------|
D|--2-------------------|--5-------------------|
A|--0-------------------|--3-------------------|
E|----------------------|----------------------|
|
|
e|----------------------|----------------------|
B|----------------------|----------------------|
G|--9-------------------|--9-------------------|
D|------10--9----7------|------10--9----7------|
A|----------------------|----------------------|
E|----------------------|----------------------|

e|----------------------|---------------------|
B|----------------------|---------------------|
G|--4-------------------|--7------5------4----|
D|--4-------------------|--7------5------4----|
A|--2-------------------|--5------3------2----|
E|----------------------|---------------------|
|
|
e|----------------------|---------------------|
B|----------------------|---------------------|
G|--9-------------------|--9------------------|
D|------10--9----7------|--------10------7----|
A|----------------------|---------------------|
E|----------------------|---------------------|

[Chorus]
 Part 1:
e|---------------------|--------------------|
B|---------------------|--------------------|
G|--9--------12--------|--5--------6--------|
D|--9--------12--------|--5--------6--------|
A|--7--------10--------|--3--------4--------|
E|---------------------|--------------------|

e|---------------------|---------------------|
B|---------------------|---------------------|
G|--9--------12--------|--5--------2----4----|
D|--9--------12--------|--5--------2----4----|
A|--7--------10--------|--3--------0----2----|
E|---------------------|---------------------|

 Part 2
e|---------------------------|-------------------|
B|---------------------------|-------------------|
G|--7------------------------|--5----------------|
D|--7------------------------|--5----------------|
A|--5------------------------|--3----------------|
E|---------------------------|-------------------|
|
|
e|---------------------------|-------------------|
B|------10---8---------------|-------------------|
G|--7------------10--9---10--|-------------------|
D|---------------------------|-10~---------------|
A|---------------------------|-------------------|
E|---------------------------|-------------------|

e|---------------------------|-------------------|
B|---------------------------|-------------------|
G|--7------------------------|--5----------------|
D|--7------------------------|--5----------------|
A|--5------------------------|--3----------------|
E|---------------------------|-------------------|
|
|
e|---------------------------|-------------------|
B|------10---8---------------|-------------------|
G|--7------------10--9---10--|-10~---------------|
D|---------------------------|-------------------|
A|---------------------------|-------------------|
E|---------------------------|-------------------|

e|------------------------|-----------------------|
B|------------------------|-----------------------|
G|--3---------------------|--3--------------------|
D|--3---------------------|--3--------------------|
A|--1---------------------|--1--------------------|
E|------------------------|-----------------------|
|
|
e|------------------------|------------------------|
B|-------8---6------------|-------8---6------------|
G|---------------9--7-----|---------------9--7-----|
D|--8------------------10-|--8-----------------10--|
A|------------------------|------------------------|
E|------------------------|------------------------|

e|---------------------------|--------------------|
B|---------------------------|--------------------|
G|--7------------------------|--5-----------------|
D|--7------------------------|--5-----------------|
A|--5------------------------|--3-----------------|
E|---------------------------|--------------------|
|
|
e|---------------------------|--------------------|
B|------10---8---------------|--------------------|
G|--7------------10--9---10--|--------------------|
D|---------------------------|-10~----------------|
A|---------------------------|--------------------|
E|---------------------------|--------------------|

Solo Rhythm:
e|-------------------------------|-------------------------------|
B|-------------------------------|-------------------------------|
G|--7----------------------------|--3----------------------------|
D|--7----------------------------|--3----------------------------|
A|--5----5-5-5-5-5-5-5-5-5-5-5-5-|-------5-5-5-5-5-5-5-5-5-5-5-5-|
E|-------------------------------|-------------------------------|

e|-------------------------------|----------------------|
B|-------------------------------|----------------------|
G|--5----------------------------|--5------7----5---5---|
D|--5----------------------------|--5------7----5---5---|
A|-------5-5-5-5-5-5-5-5-5-5-5-5-|----------------------|
E|-------------------------------|----------------------|

[Interlude]
e|------------------------------|--------------------------|
B|------------------------------|--------------------------|
G|-----5--4----------5--4-------|-----5--4-------5------7--|
D|--2-------5-2-2-2-------5-2-2-|--2-------5-2-2-5------7--|
A|------------------------------|----------------3------5--|
E|------------------------------|--------------------------|
|
|
e|------------------------------|--------------------------|
B|------------------------------|--------------------------|
G|------------------------------|----------------5------7--|
D|--2---------------------------|--2-------------5------7--|
A|--2---------------------------|--2-------------3------5--|
E|--0---------------------------|--0-----------------------|

e|------------------------------|--------------------------|
B|------------------------------|--------------------------|
G|------------------------------|----------------3------3--|
D|-----8--7----------8--7-------|-----8--7-------3------3--|
A|--5-------8-5-5-5-------8-5-5-|--5-------8-5-5-1------1--|
E|------------------------------|--------------------------|
|
|
e|------------------------------|--------------------------|
B|------------------------------|--------------------------|
G|--7---------------------------|--7-------------3------5--|
D|--7---------------------------|--7-------------3------5--|
A|--5---------------------------|--3-------------1------3--|
E|------------------------------|--------------------------|


e|------------------------------|--------------------------|
B|------------------------------|--------------------------|
G|-----7--6----------7--6-------|-----7--6-------7------9--|
D|--4-------7-4-4-4-------7-4-4-|--4-------7-4-4-7------9--|
A|------------------------------|----------------5------7--|
E|------------------------------|--------------------------|
|
|
e|------------------------------|--------------------------|
B|------------------------------|--------------------------|
G|------------------------------|----------------7------9--|
D|--4---------------------------|--4-------------7------9--|
A|--4---------------------------|--4-------------5------7--|
E|--2---------------------------|--2-----------------------|

e|------------------------------|--------------------------|
B|------------------------------|--------------------------|
G|-----5--4----------5--4-------|-----5--4-------5------7--|
D|--2-------5-2-2-2-------5-2-2-|--2-------5-2-2-5------7--|
A|------------------------------|----------------3------5--|
E|------------------------------|--------------------------|
|
|
e|------------------------------|--------------------------|
B|------------------------------|--------------------------|
G|--9---------------------------|--9-------------5------7--|
D|--9---------------------------|--9-------------5------7--|
A|--7---------------------------|--7-------------3------5--|
E|------------------------------|--------------------------|

[Outro]
e|-------------------------|----------------------||
B|-------------------------|----------------------||
G|--7----14----12----10----|--9----10----7--------||
D|--7----14----12----10----|--9----10----7--------||
A|--5----12----10----8-----|--7----8-----5--------||
E|-------------------------|----------------------||
Suggest correction
comments
print report bad tab
8 comments total. Showing first comments.
-1 reply
OttovanZanten 92 Jan 06, 2006 02:48 AM

i dont hear a second guitar in the first part of the intro :| maybe other version?

0 reply
Cachao 70 Jun 27, 2008 10:40 AM

In the verse it should be:

|-------------------------------|-------------------------------|
|-------------------------------|-------------------------------|
|--7----------------------------|--3----------------------------|
|--7----------------------------|--3----------------------------|
|--5----5-5-5-5-5-5-5-5-5-5-5-5-|-------5-5-5-5-5-5-5-5-5-5-5-5-|
|-------------------------------|-------------------------------|


|-------------------------------|----------------------|
|-------------------------------|----------------------|
|--5----------------------------|--5------7----3---5---|
|--5----------------------------|--5------7----3---5---|
|-------5-5-5-5-5-5-5-5-5-5-5-5-|----------------------|
|-------------------------------|----------------------|

just a thought ad apart from that, good tab

0 reply
Cachao 70 Jun 28, 2008 01:42 PM

excellent tab, really really good. layout makes it so much easier, but adding the times (e.g. 3:04) would make it better.

guest
You may want to rate the tab now too:
select rating
Wanna post a correction for this tab? Suggest correction