Oops, an error
Loading. Please wait.

Ghost Of The Navigator Tab

version 4
version 4

Intro

Whole song

Interactive

2,247 views 1 this week
no commentswrite comment
1 2 3 4 5
not so good
x 2
add to favorites
launch autoscroll
font size
0
reset
how to read this tab
guitar tuner
Tab Pro tools
  • play this tab
  • loop segment
  • change instrument
  • show fretboard
  • metronome
Autoscroll
slow
fast
+/-
esc
set tempo
stop
Contributor
----------------------------------------------------------------------------
                Ghost of the navigator-Iron maiden
----------------------------------------------------------------------------

Tuning:EADGBE(low to high)

e|--------------------------------------------------------------------------|
B|------10--8---------------------------10--8-------------------------------|
G|--------------10--9--10-----------------------10--9--10--9----------------|
D|--12---------------------10------12---------------------------------------|
A|--------------------------------------------------------------------------|
E|--------------------------------------------------------------------------|

e|--------------------------------------------------------------------------|
B|---------------------------------------------------10--8------------------|
G|-------12--10--9--7-----------12--10-9-7-------------------10--9--10------|
D|---8-----------------10----8--------------10---12---------------------10--|
A|--------------------------------------------------------------------------|
E|--------------------------------------------------------------------------|

e|--------------------------------------------------------------------------|
B|--------------------------------------------------------------------------|
G|-----12-10-9-7---------12-10-9-7--------12-10-9-7----------9-10-12-10-9---|
D|-12------------10---8-------------10-10------------10--12-----------------|
A|--------------------------------------------------------------------------|
E|--------------------------------------------------------------------------|

e|--------------------------------------------------------------------------|
B|--------------------------------------------------------------------------|
G|-----12-10-9-7---------12-10-9-7--------12-10-9-7----------9-10-12-10-9---|
D|-12------------10---8-------------10-10------------10--12-----------------|
A|--------------------------------------------------------------------------|
E|--------------------------------------------------------------------------|

  Distortion
e|---------------------------------------------------------------------------|
B|---3-----------------------------------------------------------------------|
G|---2------3-----5----5----7-----5------------------------------------------|
D|---0------0-----0----0----0-----0------------------------------------------|
A|---------------------------------------------------------------------------|
E|---------------------------------------------------------------------------|
  Verse
e|---------------------------------------------------------------------------|
B|--3------------------------------------------------------------------------|
G|--2------------------------3----------------------5------------------5-7-5-|
D|--0-0-0-0-0-0-0-0-0-0-0-0--0-0-0-0-0-0-0-0-0-0-0--0-0-0-0-0-0-0-0-0--0-0-0-|
A|---------------------------------------------------------------------------|
E|---------------------------------------------------------------------------|

 Pre-chorus
this x2
e|-----------------------------------------------------------------------|
B|-----------------------------------------------------------------------|
G|-2-----2-----2-----5-----5-----5-----4-----4-----4-----7-7-7-5-5-5-4---|
D|-2-----2-----2-----5-----5-----5-----4-----4-----4-----7-7-7-5-5-5-4---|
A|-0-0-0-0-0-0-0---3-3-3-3-3-3-3-3---2-2-2-2-2-2-2-2---5-5-5-3-3-3-2-2---|
E|-----------------------------------------------------------------------|

  Then
e|--------------------------------------------------------------------------|
B|--------------------------------------------------------------------------|
G|-----------5-4-2-----------5-4-2----------5-4-2---------7-7-7-5-5-5-4-----|
D|--------------------------------------------------------------------------|
A|---7-7-7-7--------7-7-7-7---------7-7-7-7-------7-7-7-7-------------------|
E|--------------------------------------------------------------------------|


Chorus

e|--------------------------------------------------|
B|--------------------------------------------------|
G|-9-9-9-9---12-12-12-12---5-5-5-5---2-2-2-2--------|
D|-9-9-9-9---12-12-12-12---5-5-5-5---2-2-2-2--------|
A|-7-7-7-7---10-10-10-10---3-3-3-3---0-0-0-0--------|
E|--------------------------------------------------|


then repeat intro with lyrics: "Take my heart and set it free'And repeat till solo

Solo(cant figure it out

After solo

e|--------------------------------------------------------------|
B|--------------------------------------------------------------|
G|--------------------------------------------------------------|
D|------10-7-9-7----9-9--10-7-9-7----9-9--10-7-9-7----5---7-----|
A|-7-7----------10--7-7----------10--7-7----------10--3---5-----|
E|--------------------------------------------------------------| (2x)

e|--------------------------------------------------------|
B|--------------------------------------------------------|
G|--------------------------------------------------------|
D|------8-5-7-5---7-7--8-5-7-5---7-7--8-5-7-5---3---5-----|
A|-5-5---------8--5-5---------8--5-5---------8--1---3-----|
E|--------------------------------------------------------| (2x)

e|---------------------------------------------------------------------|
B|---------------------------------------------------------------------|
G|---------------------------------------------------------------------|
D|------12-9-11-9----11-11--12-9-11-9-----11-11--12-9-11-9-----7---9---|
A|-9--9------------12--9--9-------------12--9--9-------------12--5---7-|
E|---------------------------------------------------------------------| (2x)

e|--------------------------------------------------------------|
B|--------------------------------------------------------------|
G|--------------------------------------------------------------|
D|------10-7-9-7----9-9--10-7-9-7----9-9--10-7-9-7----5---7-----|
A|-7-7----------10--7-7----------10--7-7----------10--3---5-----|
E|--------------------------------------------------------------| (2x)

| /  slide up
| \  slide down
| h  hammer-on
| p  pull-off
| ~  vibrato
| +  harmonic
| x  Mute note
============================================================================
comments
We did not receive enough feedback on this tab! Please rate:
print report bad tab
1 2 3 4 5
I want to post or [tab]
guest
You may want to rate the tab now too:
select rating
Please do not post tabs as comments. Select "correction" instead!