Oops, an error
Loading. Please wait.

Hallowed Be Thy Name Tab

version 1
version 1
47,993 views 45 this week
3 commentsread comments
1 2 3 4 5
x 19
add to favorites
launch autoscroll
font size
0
reset
how to read this tab
guitar tuner
Autoscroll
slow
fast
+/-
esc
set tempo
stop
Help us to improve Ultimate-Guitar.com Take our survey!
×
Author
Tunning Standard
Key

 [solo 1]
e|----------0----------------------------------------------------------|
B|-------------5p3p0-5p3p0-5p3p0-5p3p0-5p3p0-5p3p0-5p3p0-5p3p0---------|
G|-2b~~~~--------------------------------------------------------------|
D|---------------------------------------------------------------------|
A|---------------------------------------------------------------------|
E|---------------------------------------------------------------------|

e|---------------------------------------------------------------------|
B|-8p7p0-7p5p0-8p7p0-7p5p0-8p7p0-7p5p0-8p7p0-7p5p0-8p7p0-7p5p0---------|
G|---------------------------------------------------------------------|
D|---------------------------------------------------------------------|
A|---------------------------------------------------------------------|
E|---------------------------------------------------------------------|

e|----------------------------------------12h15p12-----12h15p12-12-----|
B|-8p7p0-------------------13-15-12--15b-----------14------------------|
G|--------3/12--------/14----------------------------------------------|
D|-------------0-12/---------------------------------------------------|
A|---------------------------------------------------------------------|
E|---------------------------------------------------------------------|

e|----12-----12--------------------------------------------------------|
B|-14----15b----15p12h15p12--------------------------------------------|
G|---------------------------14p12h14p12-14p12----12h14----------------|
D|---------------------------------------------14-------12h14-12-------|
A|---------------------------------------------------------------------|
E|---------------------------------------------------------------------|

                                                        t  tr//////
e|----------------------------------------------------------------17b~-|
B|-------------15--17b~~~~~~~~~~~~~~~~~~~~~~--15h17p15-17p15--15-------|
G|-------------15------------------------------------------------------|
D|-(14)/1/16-----------------------------------------------------------|
A|---------------------------------------------------------------------|
E|---------------------------------------------------------------------|

 Solo 2
          t
e|--------------------------------------------------------17p14--------|
B|-15b~~--18p15p12-12-----12-12---------------------/15---------15-----|
G|-----------------12-14--12-12--12h14p12------------------------------|
D|-----------------------------------------14~~/-0---------------------|
A|---------------------------------------------------------------------|
E|---------------------------------------------------------------------|

e|-19p14----17p14----19p14----17p14----19p14----17p14----19p14----17p14-|
B|-------15-------15-------15-------15-------15-------15-------15-------|
G|----------------------------------------------------------------------|
D|----------------------------------------------------------------------|
A|----------------------------------------------------------------------|
E|----------------------------------------------------------------------|

e|-19p14-----14-14b----12-12-15p12----12--------------------------------|
B|-------15--15-15b-15-------------15----15p12-15p12-----12-------------|
G|----------------------------------------------------14----14p12-14p12-|
D|----------------------------------------------------------------------|
A|----------------------------------------------------------------------|
E|----------------------------------------------------------------------|

e|---------------------------------------------------------------------|
B|---------------------------------------------------------------------|
G|----12-------------------------------------12-14b~~-12---------------|
D|-14----14p12-14p12-----12-----------12-14--------------14b~~~~-------|
A|--------------------14----14/12-/14----------------------------------|
E|---------------------------------------------------------------------|

          t        t        t        t        t        t
e|-10-12-20p10h12-19p10h12-20p10h12-19p10h12-17p10h12-19p10h12---------|
B|---------------------------------------------------------------------|
G|---------------------------------------------------------------------|
D|---------------------------------------------------------------------|
A|---------------------------------------------------------------------|
E|---------------------------------------------------------------------|

    t        t        t        t
e|-17p10h12-15p10h12-14p10h12-15p10h12-10-10-10------------------------|
B|-----------------------------------------------------15b---17b~~~~~/-|
G|-----------------------------------------------0--0------------------|
D|-----------------------------------------------0--0------------------|
A|---------------------------------------------------------------------|
E|---------------------------------------------------------------------|

************************************

| ~  Vibrato
| p  Pull-off
| h  Hammer-on
| b  Bend
| /  Slide up
| t  Tap

************************************
Suggest correction
comments
print report bad tab
3 comments total.
0 reply
buzzcut 101 May 15, 2007 04:21 PM

sounds really good! I cant play all of it yet but it all seems close to perfect so far.

0 reply
a god 125 Jul 27, 2007 05:14 PM

very good. sounds fine to me.

0 reply
the_triangle 51 Sep 03, 2007 12:27 AM

lol did u not no that u press the button above enter for | lol the I but good tab though

guest
You may want to rate the tab now too:
select rating
Wanna post a correction for this tab? Suggest correction