Oops, an error
Loading. Please wait.

Hallowed Be Thy Name Bass Tab

version 2
35,976 views 15 this week
19 commentsread comments
1 2 3 4 5
accurate
x 29
add to favorites
launch autoscroll
font size
0
reset
guitar tuner
Autoscroll
slow
fast
+/-
esc
set tempo
stop
Help us to improve Ultimate-Guitar.com Take our survey!
×
h = hammer on
p = pull off
/ = slide up
\ = slide down


G|------------------------------------|
D|------------------------------------|
A|------------------------------------|
E|-0--0--0--0--0--0--0--0--0--0--0--0-|

G|----------------------------------|
D|----------------------------------|
A|-3--5--5h7--------3--5--5h7-------|
E|-----------0---0------------0---0-|

G|-------------------------------------------------------------------|
D|-----------------------------------------------------------54--54--|
A|-7777777777777777\333333333333333/5555555555555555/77777777--5---5-|
E|-------------------------------------------------------------------|

G|-------------------------------------------------------------------|
D|-----------------------------------------------------------54--54--|
A|-7777777777777777\333333333333333/5555555555555555/77777777--5---5-|
E|-------------------------------------------------------------------|

G|-------------------------------------------------------------------|
D|-----------------------------------------------------------54--54--|
A|-7777777777777777\333333333333333/5555555555555555/77777777--5---5-|
E|-------------------------------------------------------------------|

G|-------------------------------------------------------------------|
D|-----------------------------------------------------------54--54--|
A|-7777777777777777\333333333333333/5555555555555555/77777777--5---5-|
E|-------------------------------------------------------------------|

G|--------------------------------------|
D|---------------------------------54---|
A|-7-----3-----5-----7-0-2-0-3--232--75-|
E|-----3-----5-----7--------------------|

G|--------------------------------------|
D|---------------------------------54---|
A|-7-----3-----5-----7-0-2-0-3--232--75-|
E|-----3-----5-----7--------------------|

G|----------------------------------------------------------------------|
D|-----------------------------------------------------------------54---|
A|-7777777777777777\3333333333333333/5555555555555555-7-0-2-0-3-232--75-|
E|----------------------------------------------------------------------|

G|----------------------------------------------------------------------|
D|-----------------------------------------------------------------54---|
A|-7777777777777777\3333333333333333/5555555555555555-7-0-2-0-3-232--75-|
E|----------------------------------------------------------------------|

G|-------------------------------------------------------------------|
D|-----------------------------------------------------------54--54--|
A|-7777777777777777\333333333333333/5555555555555555/77777777--5---5-|
E|-------------------------------------------------------------------|

G|-------------------------------------------------------------------|
D|-----------------------------------------------------------54--54--|
A|-7777777777777777\333333333333333/5555555555555555/77777777--5---5-|
E|-------------------------------------------------------------------|

G|------4--4-------4--------4--------4--4-------4--------4---|
D|---457----54---45---54--45-54---457----54---45---54--45-54-|
A|-7----------7---------7-------3----------7---------7-------|
E|-----------------------------------------------------------|

G|------4--4-------4--------4--------4--4-------4--------4---|
D|---457----54---45---54--45-54---457----54---45---54--45-54-|
A|-7----------7---------7-------3----------7---------7-------|
E|-----------------------------------------------------------|

G|-------------------------------------------------------------------|
D|-------------------------------------------------------------------|
A|-777777777777777777777777777777-5-333333333333333333333333333333-5-|
E|-------------------------------------------------------------------|

G|-------------------------------------------------------------------|
D|-------------------------------------------------------------------|
A|-777777777777777777777777777777-5-333333333333333333333333333333-5-|
E|-------------------------------------------------------------------|

G|------4----------------4----------------4----------------4----------|
D|--4545-5454--------4545-5454--------4545-5454--------4545-5454------|
A|-7---------753-5--7---------753-5--7---------753-5--7---------753-5-|
E|--------------------------------------------------------------------|

G|-----------------------------------------------------------------|
D|-------------------------54------------------------------54------|
A|-777777777777777777777777--5-32--555555555555555555555555--5-32--|
E|-------------------------------3-------------------------------3-|

G|-----------------------------------------------------------------|
D|-------------------------54------------------------------54------|
A|-777777777777777777777777--5-32--555555555555555555555555--5-32--|
E|-------------------------------3-------------------------------3-|

G|-----------------------------------------------------------------|
D|-------------------------54------------------------------54------|
A|-777777777777777777777777--5-32--555555555555555555555555--5-32--|
E|-------------------------------3-------------------------------3-|

G|-----------------------------------------------------------------|
D|-------------------------54------------------------------54------|
A|-777777777777777777777777--5-32--555555555555555555555555--5-32--|
E|-------------------------------3-------------------------------3-|

G|-----------------------------------------------------------------|
D|-------------------------54------------------------------54------|
A|-777777777777777777777777--5-32--555555555555555555555555--5-32--|
E|-------------------------------3-------------------------------3-|

G|-----------------------------------------------------------------|
D|-------------------------54------------------------------54------|
A|-777777777777777777777777--5-32--555555555555555555555555--5-32--|
E|-------------------------------3-------------------------------3-|

G|--------------------------------------------|
D|---------------------------------5---5------|
A|-77777777777777777777777777777777-75--75-77-|
E|--------------------------------------------|

G|--------------------------------------------|
D|---------------------------------5---5------|
A|-77777777777777777777777777777777-75--75-77-|
E|--------------------------------------------|

G|--------------------------------------------|
D|---------------------------------5---5------|
A|-77777777777777777777777777777777-75--75-77-|
E|--------------------------------------------|

G|----------------------------------|
D|----------------------------------|
A|-77777777777777777777777777777777-|
E|----------------------------------|

G|----------------------------------------------------------------------|
D|-------------------------------------------------------------54-54-54-|
A|-7777777777777777\3333333333333333/55555555555555555/77777777--5--5--5|
E|----------------------------------------------------------------------|

G|----------------------------------------------------------------------|
D|-------------------------------------------------------------54-54-54-|
A|-7777777777777777\3333333333333333/55555555555555555/77777777--5--5--5|
E|----------------------------------------------------------------------|

G|----------------------------------------------------------------------|
D|-----------------------------------------------------------------54---|
A|-7777777777777777\3333333333333333/5555555555555555-7-0-2-0-3-232--75-|
E|----------------------------------------------------------------------|

G|----------------------------------------------------------------------|
D|-----------------------------------------------------------------54---|
A|-7777777777777777\3333333333333333/5555555555555555-7-0-2-0-3-232--75-|
E|----------------------------------------------------------------------|

G|-------------------------------------------------------------------|
D|-----------------------------------------------------------54--54--|
A|-7777777777777777\333333333333333/5555555555555555/77777777--5---5-|
E|-------------------------------------------------------------------|

G|------------------------------------------------------------------|
D|------------------------------------------------------------------|
A|-7777777777777755\3333333333333333/5555555555555555-7---5---3---5-|
E|-------------------------------------------------------5---3---5--|

G|-----------------------------------------------||
D|-----------------------------------------------||
A|--7777777777777777777777777777------7777-7777\-||
E|-7---------------------------------------------||
Suggest correction
comments
print report bad tab
19 comments total. Showing first comments. show 2 bad comments
0 reply
METSOAD 1,622 wrote on June 26 2006, 10:44 am

this is great, well done

guest
You may want to rate the tab now too:
select rating
Wanna post a correction for this tab? Suggest correction