Oops, an error
Loading. Please wait.

Hallowed Be Thy Name drums

version 2
version 2
307 views 1 this week
no commentswrite comment
1 2 3 4 5
x 4
add to favorites
×
Save as Personal and add changes to this tab that will be seen only by you. Learn more ›
×
You can save this tab as Personal to edit and correct it or add notes. All changes will be seen only by you. Learn more »
launch autoscroll
font size
0
reset
guitar tuner
backing track
0:00
0:00
edit
Autoscroll
slow
fast
+/-
esc
set tempo
stop
Author
Difficulty
                             Hallowed Be Thy Name   
                            

                                  Iron Maiden

Nicko McBrain



           Intro                                                       
     S     W                    W                    W                 
C||----|--36----------------|--36----------------|--36----------------|
C||----|--46----------------|--46----------------|--46----------------|
C||----|--------------------|--------------------|--------------------|
C||----|--------------------|--------------------|--------------------|
C||----|--------------------|--------------------|--------------------|
C||----|--------------------|--------------------|--------------------|


   Verso Riff 1                                                
   W                    W                    W                 
--36----------------|--36----------------|--36----------------|
--46----------------|--46----------------|--46----------------|
--------------------|--------------------|--------------------|
--------------------|--------------------|--------------------|
--------------------|--------------------|--------------------|
--------------------|--------------------|--------------------|


   W                    W                    W                 
--36----------------|--36----------------|--36----------------|
--46----------------|--46----------------|--46----------------|
--------------------|--------------------|--------------------|
--------------------|--------------------|--------------------|
--------------------|--------------------|--------------------|
--------------------|--------------------|--------------------|


   W                    W                    H.            E   E   
--36----------------|--36----------------|--36------------52--52--|
--46----------------|--46----------------|--46------------55--55--|
--------------------|--------------------|------------------------|
--------------------|--------------------|------------------------|
--------------------|--------------------|------------------------|
--------------------|--------------------|------------------------|


   W                    H.            E   E      W                 
--36----------------|--36------------52--52--|--36----------------|
--46----------------|--46------------55--55--|--46----------------|
--------------------|------------------------|--------------------|
--------------------|------------------------|--------------------|
--------------------|------------------------|--------------------|
--------------------|------------------------|--------------------|


   H.            E   E      W                    H.            E   E   
--36------------52--52--|--36----------------|--36------------52--52--|
--46------------55--55--|--46----------------|--46------------55--55--|
------------------------|--------------------|------------------------|
------------------------|--------------------|------------------------|
------------------------|--------------------|------------------------|
------------------------|--------------------|------------------------|


   W                    W                 
--36----------------|--36----------------|
--46----------------|--46----------------|
--------------------|--------------------|
--------------------|--------------------|
--------------------|--------------------|
--------------------|--------------------|


   Riff A                                              
   S      S  S  S  S  S  S  S  S  S  S  S  S  S  S  S  
--36-----42-42-42-38-42-42-42-36-42-42-42-38-42-42-42-|
--49--------------42----------42----------42----------|
------------------------------------------------------|
------------------------------------------------------|
------------------------------------------------------|
------------------------------------------------------|


   S  S  S  S  S  S  S  S  S  S  S  S  S  S  S  S  
--36-42-42-42-38-42-42-42-36-42-42-42-38-42-42-42-|
--49----------42----------42----------42----------|
--------------------------------------------------|
--------------------------------------------------|
--------------------------------------------------|
--------------------------------------------------|


   S  S  S  S  S  S  S  S  S  S  S  S  S  S  S  S  
--36-42-42-42-38-42-42-42-36-42-42-42-38-42-42-42-|
--49----------42----------42----------42----------|
--------------------------------------------------|
--------------------------------------------------|
--------------------------------------------------|
--------------------------------------------------|


   S  S  E   E   E   S  S  E   S  S  E   
--36-42-46--38--38--38-38-38--38-38-38--|
--42------------------------------------|
----------------------------------------|
----------------------------------------|
----------------------------------------|
----------------------------------------|


   S  S  S  S  S  S  S  S  S  S  S  S  S  S  S  S  
--36-42-42-42-38-42-42-42-36-42-42-42-38-42-42-42-|
--49----------42----------42----------42----------|
--------------------------------------------------|
--------------------------------------------------|
--------------------------------------------------|
--------------------------------------------------|


   S  S  S  S  S  S  S  S  S  S  S  S  S  S  S  S  
--36-42-42-42-38-42-42-42-36-42-42-42-38-42-42-42-|
--49----------42----------42----------42----------|
--------------------------------------------------|
--------------------------------------------------|
--------------------------------------------------|
--------------------------------------------------|


   S  S  S  S  S  S  S  S  S  S  S  S  S  S  S  S  
--36-42-42-42-38-42-42-42-36-42-42-42-38-42-42-42-|
--49----------42----------42----------42----------|
--------------------------------------------------|
--------------------------------------------------|
--------------------------------------------------|
--------------------------------------------------|


   S  S  E   E   E   S  S  E   S  S  S  S  
--36-42-46--38--38--38-38-38--47-45-43-41-|
--42--------40--40------------------------|
------------------------------------------|
------------------------------------------|
------------------------------------------|
------------------------------------------|


     Riff B                                              
     S      S  S  S  S  S  S  S  S  S  S  S  S  S  S  S  
|---36-----42-42-42-38-42-42-42-36-42-42-42-38-42-38-42-|
|---49--------------42----------42----------42----42----|
|*------------------------------------------------------|
|*------------------------------------------------------|
|-------------------------------------------------------|
|-------------------------------------------------------|


   S  S  S  S  S  S  S  S  S  S  S  S  S  S  S  S  
--36-42-42-42-38-42-42-42-36-42-42-42-38-42-38-42-|
--57----------42----------42----------42----42----|
--------------------------------------------------|
--------------------------------------------------|
--------------------------------------------------|
--------------------------------------------------|


   S  S  S  S  S  S  S  S  S  S  S  S  S  S  S  S  
--36-42-42-42-38-42-42-42-36-42-42-42-38-42-38-42-|
--49----------42----------42----------42----42----|
--------------------------------------------------|
--------------------------------------------------|
--------------------------------------------------|
--------------------------------------------------|


                                                      Verso Riff 2         
   S  S  S  S  S  S  S  S  S  S  E   S  S  S  S       H.           E   E   
--36-42-42-42-38-42-42-42-38-38-38--47-47-45-45--||--36---------------38--|
--57---------------------------------------------||--49-------------------|
------------------------------------------------*||-----------------------|
------------------------------------------------*||-----------------------|
-------------------------------------------------||-----------------------|
-------------------------------------------------||-----------------------|


   H.           E   E      H.           E   E   
--36---------------38--|--36---------------38--|
--49-------------------|--49-------------------|
-----------------------|-----------------------|
-----------------------|-----------------------|
-----------------------|-----------------------|
-----------------------|-----------------------|


   E   S  E   S  E  S  S  S  S  S  S  S  S     H.           E   E   
--36--38-36--38-36----38-38-36-47-45-43-41-|--36---------------38--|
--49-----57-----49-------------------------|--49-------------------|
-------------------------------------------|-----------------------|
-------------------------------------------|-----------------------|
-------------------------------------------|-----------------------|
-------------------------------------------|-----------------------|


   H.           E   E      H.           E   E   
--36---------------38--|--36---------------38--|
--49-------------------|--49-------------------|
-----------------------|-----------------------|
-----------------------|-----------------------|
-----------------------|-----------------------|
-----------------------|-----------------------|


   E   S  E   S  E  S  S  S  S  S  S  S  S  
--36--38-36--38-36----38-38-36-47-45-43-41-|
--49-----57-----49-------------------------|
-------------------------------------------|
-------------------------------------------|
-------------------------------------------|
-------------------------------------------|


   Verso Riff 3                                              
   S            S  S  S  S  S  S  S  S  S  S  S  S  S  S  S  
--36-----------42-42-42-38-42-42-42-36-42-42-42-38-42-42-42-|
--49--------------------42----------42----------42----------|
------------------------------------------------------------|
------------------------------------------------------------|
------------------------------------------------------------|
------------------------------------------------------------|


   S  S  S  S  S  S  S  S  S  S  S  S  S  S  S  S  
--36-42-42-42-38-42-42-42-36-42-42-42-38-42-42-42-|
--42----------42----------42----------42----------|
--------------------------------------------------|
--------------------------------------------------|
--------------------------------------------------|
--------------------------------------------------|


   S  S  S  S  S  S  S  S  S  S  S  S  S  S  S  S  
--36-42-42-42-38-42-42-42-36-42-42-42-38-42-42-42-|
--42----------42----------42----------42----------|
--------------------------------------------------|
--------------------------------------------------|
--------------------------------------------------|
--------------------------------------------------|


   E   S  E   S  E  S  S  S  S  S  S  S  S  
--36--38-36--35-36--L-38-38-38-47-47-45-43-|
--49-----57-----49--L----------------------|
-------------------------------------------|
-------------------------------------------|
-------------------------------------------|
-------------------------------------------|


   S  S  S  S  S  S  S  S  S  S  S  S  S  S  S  S  
--36-42-42-42-38-42-42-42-36-42-42-42-38-42-42-42-|
--49----------42----------42----------42----------|
--------------------------------------------------|
--------------------------------------------------|
--------------------------------------------------|
--------------------------------------------------|


   S  S  S  S  S  S  S  S  S  S  S  S  S  S  S  S  
--36-42-42-42-38-42-42-42-36-42-42-42-38-42-42-42-|
--42----------42----------42----------42----------|
--------------------------------------------------|
--------------------------------------------------|
--------------------------------------------------|
--------------------------------------------------|


   S  S  S  S  S  S  S  S  S  S  S  S  S  S  S  S  
--36-42-42-42-38-42-42-42-36-42-42-42-38-42-42-42-|
--42----------42----------42----------42----------|
--------------------------------------------------|
--------------------------------------------------|
--------------------------------------------------|
--------------------------------------------------|


   E   S  E   S  E  S  S  S  S  S  S  S  S  
--36--38-36--35-36--L-38-38-38-47-47-45-43-|
--49-----57-----49--L----------------------|
-------------------------------------------|
-------------------------------------------|
-------------------------------------------|
-------------------------------------------|


     Riff B                                              
     S      S  S  S  S  S  S  S  S  S  S  S  S  S  S  S  
|---36-----42-42-42-38-42-42-42-36-42-42-42-38-42-38-42-|
|---49--------------42----------42----------42----42----|
|*------------------------------------------------------|
|*------------------------------------------------------|
|-------------------------------------------------------|
|-------------------------------------------------------|


   S  S  S  S  S  S  S  S  S  S  S  S  S  S  S  S  
--36-42-42-42-38-42-42-42-36-42-42-42-38-42-38-42-|
--42----------42----------42----------42----42----|
--------------------------------------------------|
--------------------------------------------------|
--------------------------------------------------|
--------------------------------------------------|


   S  S  S  S  S  S  S  S  S  S  S  S  S  S  S  S  
--36-42-42-42-38-42-42-42-36-42-42-42-38-42-38-42-|
--49----------42----------42----------42----42----|
--------------------------------------------------|
--------------------------------------------------|
--------------------------------------------------|
--------------------------------------------------|


   S  S  S  S  S  S  S  S  S  S  E   S  S  S  S    
--36-42-42-42-38-42-42-42-38-38-38--47-47-45-45--||
--42---------------------------------------------||
------------------------------------------------*||
------------------------------------------------*||
-------------------------------------------------||
-------------------------------------------------||


    Interludio 1a                             
    Q            S  S  S  S  Q    S  S  S  S  
---38------------L-38-38-38-38----L-38-38-38-|
---49------------L----------49----L----------|
*--------------------------------------------|
*--------------------------------------------|
---------------------------------------------|
---------------------------------------------|


   E   S  S  E   S  S  E   S  S  S  S  S  S  
--38--38-38-38--38-38-38--38-38-47-45-43-41-|
------------49--------49--------------------|
--------------------------------------------|
--------------------------------------------|
--------------------------------------------|
--------------------------------------------|


   Q    S  S  S  S  Q    S  S  S  S  
--38----L-38-38-38-38----L-38-38-38-|
--49----L----------49----L----------|
------------------------------------|
------------------------------------|
------------------------------------|
------------------------------------|


   E   S  S  E   S  S  E   S  S  S  S  S  S    
--38--38-38-38--38-38-38--38-38-47-45-43-41--||
--49--------49--------49---------------------||
--------------------------------------------*||
--------------------------------------------*||
---------------------------------------------||
---------------------------------------------||


    Interludio 1b                                              
    S             S  S  S  S  S  S  S  S  S  S  S  S  S  S  S  
---36------------42-42-42-38-42-42-42-36-42-42-42-38-42-42-42-|
---49---------------------42----------42----------42----------|
*-------------------------------------------------------------|
*-------------------------------------------------------------|
--------------------------------------------------------------|
--------------------------------------------------------------|


   S  S  S  S  S  S  S  S  S  S  S  S  S  E.   
--36-42-42-42-38-42-42-42-36-42-42-42-38-42---|
--42----------42----------42----------42-36---|
-----------------------------------------57---|
----------------------------------------------|
----------------------------------------------|
----------------------------------------------|


   S  S  S  S  S  S  S  S  S  S  S  S  S  S  S  S  
--36-42-42-42-38-42-42-42-36-42-42-42-38-42-42-42-|
--49----------42----------42----------42----------|
--------------------------------------------------|
--------------------------------------------------|
--------------------------------------------------|
--------------------------------------------------|


   S  S  S  S  S  S  S  S  S  S  S  S  S  E.     
--36-42-42-42-38-42-42-42-36-42-42-42-38-42----||
--42----------42----------42----------42-36----||
-----------------------------------------57---*||
----------------------------------------------*||
-----------------------------------------------||
-----------------------------------------------||


   S  S  S  S  S  S  S  S  S  S  S  S  S  S  S  S  
--36-42-42-42-38-42-42-42-36-42-42-42-38-42-42-42-|
--42----------42----------42----------42----57----|
--------------------------------------------------|
--------------------------------------------------|
--------------------------------------------------|
--------------------------------------------------|


   Verso Riff 4                                              
   S            S  S  S  S  S  S  S  S  S  S  S  S  S  S  S  
--36-----------42-42-42-38-42-42-42-36-42-42-42-38-42-42-42-|
--49--------------------42----------42----------42----------|
------------------------------------------------------------|
------------------------------------------------------------|
------------------------------------------------------------|
------------------------------------------------------------|


   S  S  S  S  S  S  S  S  S  S  S  S  S  S  S  S  
--36-42-42-42-38-42-42-42-36-42-42-42-38-42-42-42-|
--42----------42----------42----------42----------|
--------------------------------------------------|
--------------------------------------------------|
--------------------------------------------------|
--------------------------------------------------|


   S  S  S  S  S  S  S  S  S  S  S  S  S  S  S  S  
--36-42-42-42-38-42-42-42-36-42-42-42-38-42-42-42-|
--42----------42----------42----------42----------|
--------------------------------------------------|
--------------------------------------------------|
--------------------------------------------------|
--------------------------------------------------|


   S  S  E   E   E   S  S  E   S  S  S  S  
--36-42-46--38--38--38-38-38--47-45-43-41-|
--42--------40--40------------------------|
------------------------------------------|
------------------------------------------|
------------------------------------------|
------------------------------------------|


   S  S  S  S  S  S  S  S  S  S  S  S  S  S  S  S  
--36-42-42-42-38-42-42-42-36-42-42-42-38-42-42-42-|
--49----------42----------42----------42----------|
--------------------------------------------------|
--------------------------------------------------|
--------------------------------------------------|
--------------------------------------------------|


   S  S  S  S  S  S  S  S  S  S  S  S  S  S  S  S  
--36-42-42-42-38-42-42-42-36-42-42-42-38-42-42-42-|
--42----------42----------42----------42----------|
--------------------------------------------------|
--------------------------------------------------|
--------------------------------------------------|
--------------------------------------------------|


   S  S  S  S  S  S  S  S  S  S  S  S  S  S  S  S  
--36-42-42-42-38-42-42-42-36-42-42-42-38-42-42-42-|
--42----------42----------42----------42----------|
--------------------------------------------------|
--------------------------------------------------|
--------------------------------------------------|
--------------------------------------------------|


   S  S  E   E   E   S  S  E   S  S  S  S  
--36-42-46--38--38--38-38-38--47-45-43-41-|
--42--------40--40------------------------|
------------------------------------------|
------------------------------------------|
------------------------------------------|
------------------------------------------|


   S  S  S  S  S  S  S  S  S  S  S  S  S  S  S  S  
--36-42-42-42-38-42-42-42-36-42-42-42-38-42-42-42-|
--49----------42----------42----------42----------|
--------------------------------------------------|
--------------------------------------------------|
--------------------------------------------------|
--------------------------------------------------|


   S  S  S  S  S  S  S  S  S  S  S  S  S  S  S  S  
--36-42-42-42-38-42-42-42-36-42-42-42-38-42-42-42-|
--42----------42----------42----------42----------|
--------------------------------------------------|
--------------------------------------------------|
--------------------------------------------------|
--------------------------------------------------|


   S  S  S  S  S  S  S  S  S  S  S  S  S  S  S  S  
--36-42-42-42-38-42-42-42-36-42-42-42-38-42-42-42-|
--42----------42----------42----------42----------|
--------------------------------------------------|
--------------------------------------------------|
--------------------------------------------------|
--------------------------------------------------|


   S  S  E   E   E   S  S  E   S  S  S  S  
--36-42-46--38--38--38-38-38--47-45-43-41-|
--42--------40--40------------------------|
------------------------------------------|
------------------------------------------|
------------------------------------------|
------------------------------------------|


   S  S  S  S  S  S  S  S  S  S  S  S  S  S  S  S  
--36-42-42-42-38-42-42-42-36-42-42-42-38-42-42-42-|
--49----------42----------42----------42----------|
--------------------------------------------------|
--------------------------------------------------|
--------------------------------------------------|
--------------------------------------------------|


   S  S  S  S  S  S  S  S  S  S  S  S  S  S  S  S  
--36-42-42-42-38-42-42-42-36-42-42-42-38-42-42-42-|
--42----------42----------42----------42----------|
--------------------------------------------------|
--------------------------------------------------|
--------------------------------------------------|
--------------------------------------------------|


   S  S  S  S  S  S  S  S  S  S  S  S  S  S  S  S  
--36-42-42-42-38-42-42-42-36-42-42-42-38-42-42-42-|
--42----------42----------42----------42----------|
--------------------------------------------------|
--------------------------------------------------|
--------------------------------------------------|
--------------------------------------------------|


   S  S  E   E   E   S  S  E   S  S  S  S  
--36-42-46--38--38--38-38-38--47-45-43-41-|
--42--------40--40------------------------|
------------------------------------------|
------------------------------------------|
------------------------------------------|
------------------------------------------|


   Interludio 2                                              
   S            S  S  S  S  S  S  S  S  S  S  S  S  S  S  S  
--36-----------42-42-42-38-42-42-42-36-42-42-42-38-42-42-42-|
--49--------------------42----------42----------42----------|
------------------------------------------------------------|
------------------------------------------------------------|
------------------------------------------------------------|
------------------------------------------------------------|


   S  S  S  S  S  S  S  S  S  S  S  S  S  E.   
--36-42-42-42-38-42-42-42-36-42-42-42-38-42---|
--42----------42----------42----------42-36---|
-----------------------------------------57---|
----------------------------------------------|
----------------------------------------------|
----------------------------------------------|


   S  S  S  S  S  S  S  S  S  S  S  S  S  S  S  S  
--36-42-42-42-38-42-42-42-36-42-42-42-38-42-42-42-|
--49----------42----------42----------42----------|
--------------------------------------------------|
--------------------------------------------------|
--------------------------------------------------|
--------------------------------------------------|


   S  S  S  S  S  S  S  S  S  S  S  S  S  E.   
--36-42-42-42-38-42-42-42-36-42-42-42-38-42---|
--42----------42----------42----------42-36---|
-----------------------------------------57---|
----------------------------------------------|
----------------------------------------------|
----------------------------------------------|


   S  S  S  S  S  S  S  S  S  S  S  S  S  S  S  S  
--36-42-42-42-38-42-42-42-36-42-42-42-38-42-42-42-|
--49----------42----------42----------42----------|
--------------------------------------------------|
--------------------------------------------------|
--------------------------------------------------|
--------------------------------------------------|


   S  S  S  S  S  S  S  S  S  S  S  S  S  E.   
--36-42-42-42-38-42-42-42-36-42-42-42-38-42---|
--42----------42----------42----------42-36---|
-----------------------------------------57---|
----------------------------------------------|
----------------------------------------------|
----------------------------------------------|


   S  S  S  S  S  S  S  S  S  S  S  S  S  S  S  S  
--36-42-42-42-38-42-42-42-36-42-42-42-38-42-42-42-|
--49----------42----------42----------42----------|
--------------------------------------------------|
--------------------------------------------------|
--------------------------------------------------|
--------------------------------------------------|


                                                      Interludio 3      
   S  S  S  S  S  S  S  S  S  S  S  S  S  S  S  S     W                 
--36-42-42-42-38-42-42-42-36-42-42-42-38-42-38-42-|--38----------------|
--42----------42----------42----------42----57----|--49----------------|
--------------------------------------------------|--------------------|
--------------------------------------------------|--------------------|
--------------------------------------------------|--------------------|
--------------------------------------------------|--------------------|


      |--3-|      |---3--|  |--| 3                                    
  E   T  T E  E   T  T S S  T  S E.   S  E   E      W                 
-----48-48-------47-47-----45-45-----43-41--36--|--38----------------|
--------------------------------------------49--|--49----------------|
------------------------------------------------|--------------------|
------------------------------------------------|--------------------|
------------------------------------------------|--------------------|
------------------------------------------------|--------------------|


   |-----3----|  |-----3----|  |-----3----|                               
   E   E   S  S  E   E   S  S  E   E   S  S  E   E      W                 
--48--48--48-48-47--47--47-47-45--45--45-45-43--36--|--38----------------|
------------------------------------------------49--|--49----------------|
----------------------------------------------------|--------------------|
----------------------------------------------------|--------------------|
----------------------------------------------------|--------------------|
----------------------------------------------------|--------------------|


   |-----3-----|   |-----3-----|   |-----3-----|               
   T  T S  E   E   T  T S  E   E   T  T S  E   E   T  T S  E   
--47-47---47--47--45-45---45--45--43-43---43--43--41-41---36--|
----------------------------------------------------------49--|
--------------------------------------------------------------|
--------------------------------------------------------------|
--------------------------------------------------------------|
--------------------------------------------------------------|


   W                   E   T  Q     E.   E   T  E   E   
--38----------------|-----38-38----43---43--38-38--38--|
--49----------------|----------------------------------|
--------------------|----------------------------------|
--------------------|----------------------------------|
--------------------|----------------------------------|
--------------------|----------------------------------|


     Puente                                          
     S      S  S  S  S  S  S  S  S  S  S  S  E   E   
|---38-----38-38-38-38-38-48-48-47-47-43-41-45--45--|
|-------------------------------------------49--49--|
|*--------------------------------------------------|
|*--------------------------------------------------|
|---------------------------------------------------|
|---------------------------------------------------|


   S  S  S  S  S  S  S  S  S  S  S  S  E   E     
--38-38-38-38-38-38-48-48-47-47-43-41-45--45---||
--------------------------------------49--49---||
----------------------------------------------*||
----------------------------------------------*||
-----------------------------------------------||
-----------------------------------------------||


   Riff C                                   
   E      S  S  S  S  E   S  S  E   E   E   
--36-----38-36-46-36-38--46-36-38--36--38--|
--49-----46----------46--------46--46--46--|
-------------------------------------------|
-------------------------------------------|
-------------------------------------------|
-------------------------------------------|


   E   S  S  S  S  E   S  S  E   E   E   
--36--38-36-46-36-38--46-36-38--36--38--|
--49--46----------46--------49--46--57--|
----------------------------------------|
----------------------------------------|
----------------------------------------|
----------------------------------------|


   E   S  S  S  S  E   S  S  E   E   E   
--36--38-36-46-36-38--46-36-38--36--38--|
--49--46----------46--------46--46--46--|
----------------------------------------|
----------------------------------------|
----------------------------------------|
----------------------------------------|


   E   S  S  S  S  E   S  S  E   E   E   
--36--38-36-46-36-38--46-36-38--36--38--|
--49--46----------46--------49--46--57--|
----------------------------------------|
----------------------------------------|
----------------------------------------|
----------------------------------------|


   E   S  S  S  S  E   S  S  E   E   E   
--36--38-36-46-36-38--46-36-38--36--38--|
--49--46----------46--------46--46--46--|
----------------------------------------|
----------------------------------------|
----------------------------------------|
----------------------------------------|


   E   S  S  S  S  E   S  S  E   E   E   
--36--38-36-46-36-38--46-36-38--36--38--|
--49--46----------46--------49--46--57--|
----------------------------------------|
----------------------------------------|
----------------------------------------|
----------------------------------------|


   Solo 1 Dave Murray                                   
   E                  S  S  S  S  E   S  S  E   E   E   
--36-----------------38-36-46-36-38--46-36-38--36--38--|
--49-----------------46----------46--------46--46--46--|
-------------------------------------------------------|
-------------------------------------------------------|
-------------------------------------------------------|
-------------------------------------------------------|


   E   S  S  S  S  E   S  S  S  S  S  S  S  S  
--36--38-36-46-36-38--38-38-38-38-38-38-38-38-|
--49--46----------46--------------------------|
----------------------------------------------|
----------------------------------------------|
----------------------------------------------|
----------------------------------------------|


   E   S  S  S  S  E   S  S  E   E   E   
--36--38-36-46-36-38--46-36-38--36--38--|
--49--46----------46--------46--46--46--|
----------------------------------------|
----------------------------------------|
----------------------------------------|
----------------------------------------|


   E   S  S  S  S  E   S  S  E   E   E   
--36--38-36-46-36-38--46-36-38--36--38--|
--49--46----------46--------49--46--57--|
----------------------------------------|
----------------------------------------|
----------------------------------------|
----------------------------------------|


   E   S  S  S  S  E   S  S  E   E   E   
--36--38-36-46-36-38--46-36-38--36--38--|
--49--46----------46--------46--46--46--|
----------------------------------------|
----------------------------------------|
----------------------------------------|
----------------------------------------|


   E   S  S  S  S  E   S  S  E   E   E   
--36--38-36-46-36-38--46-36-38--36--38--|
--49--46----------46--------49--46--57--|
----------------------------------------|
----------------------------------------|
----------------------------------------|
----------------------------------------|


   E   S  S  S  S  E   S  S  E   E   E   
--36--38-36-46-36-38--46-36-38--36--38--|
--49--46----------46--------46--46--46--|
----------------------------------------|
----------------------------------------|
----------------------------------------|
----------------------------------------|


   E   S  S  S  S  E   S  S  E   E   E   
--36--38-36-46-36-38--46-36-38--36--38--|
--49--46----------46--------49--46--57--|
----------------------------------------|
----------------------------------------|
----------------------------------------|
----------------------------------------|


   E   S  S  S  S  E   S  S  E   E   E   
--36--38-36-46-36-38--46-36-38--36--38--|
--49--46----------46--------46--46--46--|
----------------------------------------|
----------------------------------------|
----------------------------------------|
----------------------------------------|


   E   S  S  S  S  E   S  S  E   E   E   
--36--38-36-46-36-38--46-36-38--36--38--|
--49--46----------46--------49--46--57--|
----------------------------------------|
----------------------------------------|
----------------------------------------|
----------------------------------------|


   Solo 2 Adrian Smith                                   
   E                   S  S  S  S  E   S  S  E   E   E   
--36------------------38-36-46-36-38--46-36-38--36--38--|
--49------------------46----------46--------46--46--46--|
--------------------------------------------------------|
--------------------------------------------------------|
--------------------------------------------------------|
--------------------------------------------------------|


   E   S  S  S  S  E   S  S  E   E   E   
--36--38-36-46-36-38--46-36-38--36--38--|
--49--46----------46--------49--46--57--|
----------------------------------------|
----------------------------------------|
----------------------------------------|
----------------------------------------|


   E   S  S  S  S  E   S  S  E   E   E   
--36--38-36-46-36-38--46-36-38--36--38--|
--49--46----------46--------46--46--46--|
----------------------------------------|
----------------------------------------|
----------------------------------------|
----------------------------------------|


   E   S  S  S  S  E   S  S  E   E   E   
--36--38-36-46-36-38--46-36-38--36--38--|
--49--46----------46--------49--46--57--|
----------------------------------------|
----------------------------------------|
----------------------------------------|
----------------------------------------|


   E   S  S  S  S  E   S  S  E   E   E   
--36--38-36-46-36-38--46-36-38--36--38--|
--49--46----------46--------46--46--46--|
----------------------------------------|
----------------------------------------|
----------------------------------------|
----------------------------------------|


   E   S  S  S  S  E   S  S  E   E   E   
--36--38-36-46-36-38--46-36-38--36--38--|
--49--46----------46--------49--46--57--|
----------------------------------------|
----------------------------------------|
----------------------------------------|
----------------------------------------|


   E   S  S  S  S  E   S  S  E   E   E   
--36--38-36-46-36-38--46-36-38--36--38--|
--49--46----------46--------46--46--46--|
----------------------------------------|
----------------------------------------|
----------------------------------------|
----------------------------------------|


   E   S  S  S  S  E   S  S  E   E   E   
--36--38-36-46-36-38--46-36-38--36--38--|
--49--46----------46--------46--46--46--|
----------------------------------------|
----------------------------------------|
----------------------------------------|
----------------------------------------|


   Riff D                                   
   E      S  S  S  S  E   S  S  E   E   E   
--36-----38-36-46-36-38--46-36-38--36--38--|
--49-----46----------46--------46--46--46--|
-------------------------------------------|
-------------------------------------------|
-------------------------------------------|
-------------------------------------------|


   E   S  S  S  S  E   S  S  E   E   S  S  
--36--38-36-46-36-38--46-36-38--36--38-38-|
--49--46----------46--------46--46-----49-|
------------------------------------------|
------------------------------------------|
------------------------------------------|
------------------------------------------|


   S  S  S  E   S  S  E   S  S  E   S  S  S  
---L-38-38-38--38-38-38--38-38-38--38-38-38-|
---L-------49--------49--------49-----------|
--------------------------------------------|
--------------------------------------------|
--------------------------------------------|
--------------------------------------------|


   E   S  S  S  S  E   S  S  S  S  S  S  S  S  
--36--38-36-46-36-38--46-36-38--L-36--L-38--L-|
--49--46----------46--------46--L-46--L-46--L-|
----------------------------------------------|
-------------------------------51----51-------|
-------------------------------55----55-------|
----------------------------------------------|


   E   S  S  S  S  E   S  S  E   E   S  S  
--36--38-36-46-36-38--46-36-38--36--38-38-|
--49--46----------46--------46--46-----49-|
------------------------------------------|
------------------------------------------|
------------------------------------------|
------------------------------------------|


   S  S  S  E   S  S  E   S  S  E   S  S  S  
---L-38-38-38--38-38-38--38-38-38--38-38-38-|
---L-------49--------49--------49-----------|
--------------------------------------------|
--------------------------------------------|
--------------------------------------------|
--------------------------------------------|


   E   S  S  S  S  E   S  S  S  S  S  S  S  S  
--36--38-36-46-36-38--46-36-38--L-36--L-38--L-|
--49--46----------46--------46--L-46--L-46--L-|
----------------------------------------------|
-------------------------------51----51-------|
-------------------------------55----55-------|
----------------------------------------------|


   E   S  S  S  S  E   S  S  E   E   S  S  
--36--38-36-46-36-38--46-36-38--36--38-38-|
--49--46----------46--------46--46-----49-|
------------------------------------------|
------------------------------------------|
------------------------------------------|
------------------------------------------|


   S  S  S  E   S  S  E   S  S  E   S  S  S  
---L-38-38-38--38-38-38--38-38-38--38-38-38-|
---L-------49--------49--------49-----------|
--------------------------------------------|
--------------------------------------------|
--------------------------------------------|
--------------------------------------------|


   E   S  S  S  S  E   S  S  S  S  S  S  S  S  
--36--38-36-46-36-38--46-36-38--L-36--L-38--L-|
--49--46----------46--------46--L-46--L-46--L-|
----------------------------------------------|
-------------------------------51----51-------|
-------------------------------55----55-------|
----------------------------------------------|


   S  S  S  S  S  S  S  S  S  S  S  S  S S  E   
--38-38-38-38-38-38-38-38-38-38-38-38-38---47--|
--36----------------------36---------------41--|
-------------------------------------------36--|
-------------------------------------------36--|
-----------------------------------------------|
-----------------------------------------------|


     Riff E                                   
     E      S  S  S  S  E   S  S  E   E   E   
|---36-----38-36-46-36-38--46-36-38--36--38--|
|---49-----46----------46--------46--46--46--|
|*--55---------------------------------------|
|*-------------------------------------------|
|--------------------------------------------|
|--------------------------------------------|


   E   S  S  S  S  E   S  S  E   E   E   
--36--38-36-46-36-38--46-36-38--36--38--|
--49--46----------46--------46--46--46--|
----------------------------------------|
----------------------------------------|
----------------------------------------|
----------------------------------------|


   E   S  S  S  S  E   S  S  E   E   E   
--36--38-36-46-36-38--46-36-38--36--38--|
--49--46----------46--------46--46--46--|
----------------------------------------|
----------------------------------------|
----------------------------------------|
----------------------------------------|


   E   S  S  S  S  E   S  S  S  S  S  S  S  S    
--36--38-36-46-36-38--38-38-38-38-38-38-38-38--||
--49--46----------46---------------------------||
----------------------------------------------*||
----------------------------------------------*||
-----------------------------------------------||
-----------------------------------------------||


    Riff F                                   
    E      S  S  S  S  E   S  S  E   E   E   
---36-----38-36-46-36-38--46-36-38--36--38--|
---49-----46----------46--------46--46--46--|
*-------------------------------------------|
*-------------------------------------------|
--------------------------------------------|
--------------------------------------------|


   E   S  S  S  S  E   S  S  E   E   E   
--36--38-36-46-36-38--46-36-38--36--38--|
--49--46----------46--------46--46--46--|
----------------------------------------|
----------------------------------------|
----------------------------------------|
----------------------------------------|


   E   S  S  S  S  E   S  S  E   E   E   
--36--38-36-46-36-38--46-36-38--36--38--|
--49--46----------46--------46--46--46--|
----------------------------------------|
----------------------------------------|
----------------------------------------|
----------------------------------------|


   E   S  E   S  E  S  S  S  S  S  S  S  S    
--36--38-36--35-36--L-38-38-38-47-47-45-43--||
--49-----57-----49--L-----------------------||
-------------------------------------------*||
-------------------------------------------*||
--------------------------------------------||
--------------------------------------------||


   Coro                                   
   E    S  S  S  S  E   S  S  E   E   E   
--36---38-36-46-36-38--46-36-38--36--38--|
--49---46----------46--------46--46--46--|
-----------------------------------------|
-----------------------------------------|
-----------------------------------------|
-----------------------------------------|


   E   S  S  S  S  E   S  S  E   E   E   
--36--38-36-46-36-38--46-36-38--36--38--|
--49--46----------46--------46--46--46--|
----------------------------------------|
----------------------------------------|
----------------------------------------|
----------------------------------------|


   E   S  S  S  S  E   S  S  E   E   E   
--36--38-36-46-36-38--46-36-38--36--38--|
--49--46----------46--------46--46--46--|
----------------------------------------|
----------------------------------------|
----------------------------------------|
----------------------------------------|


   E   S  S  S  S  E   S  S  S  S  S  S  S  S  
--36--38-36-46-36-38--38-36-38-38-36-38-38-38-|
--49--46----------46--------------------------|
----------------------------------------------|
----------------------------------------------|
----------------------------------------------|
----------------------------------------------|


   E   S  S  S  S  E   S  S  E   E   E   
--36--38-36-46-36-38--46-36-38--36--38--|
--49--46----------46--------46--46--46--|
----------------------------------------|
----------------------------------------|
----------------------------------------|
----------------------------------------|


   E   S  S  S  S  E   S  S  E   E   E   
--36--38-36-46-36-38--46-36-38--36--38--|
--49--46----------46--------46--46--46--|
----------------------------------------|
----------------------------------------|
----------------------------------------|
----------------------------------------|


                                            Interludio 4      
   E   S  S  S  S  E   S  S  E   E   E      W                 
--36--38-36-46-36-38--46-36-38--36--38--|--38----------------|
--49--46----------46--------46--46--46--|--49----------------|
----------------------------------------|--------------------|
----------------------------------------|--------------------|
----------------------------------------|--------------------|
----------------------------------------|--------------------|


      |--3-|      |---3--|  |--| 3                                    
  E   T  T E  E   T  T S S  T  S E.   S  E   E      W                 
-----48-48-------47-47-----45-45-----43-41--36--|--38----------------|
--------------------------------------------49--|--49----------------|
------------------------------------------------|--------------------|
------------------------------------------------|--------------------|
------------------------------------------------|--------------------|
------------------------------------------------|--------------------|


   |-----3----|  |-----3----|  |-----3----|                               
   E   E   S  S  E   E   S  S  E   E   S  S  E   E      W                 
--48--48--48-48-47--47--47-47-45--45--45-45-43--36--|--38----------------|
------------------------------------------------49--|--49----------------|
----------------------------------------------------|--------------------|
----------------------------------------------------|--------------------|
----------------------------------------------------|--------------------|
----------------------------------------------------|--------------------|


   |-----3-----|   |-----3-----|   |-----3-----|               
   T  T S  E   E   T  T S  E   E   T  T S  E   E   T  T S  E   
--47-47---47--47--45-45---45--45--43-43---43--43--41-41---36--|
----------------------------------------------------------49--|
--------------------------------------------------------------|
--------------------------------------------------------------|
--------------------------------------------------------------|
--------------------------------------------------------------|


   W                   E   T  E   E.   S. E   S  E   E   
--38----------------|-----38-38--47---45-43--38-38--38--|
--49----------------|-----------------------------------|
--------------------|-----------------------------------|
--------------------|-----------------------------------|
--------------------|-----------------------------------|
--------------------|-----------------------------------|


   Outro                             
   H         S  S  S  S  S  S  S  S  
--38--------42-42-42-42-42-42-46-46-|
--36--------------------------------|
--49--------------------------------|
------------------------------------|
------------------------------------|
------------------------------------|


   S  S  S  S  S  S  S  S  S  S  S  S  S  S  S  S  
--42-46-46-42-46-46-46-46-46-46-46-46-42-46-46-42-|
--------------------------------------------------|
--------------------------------------------------|
--------------------------------------------------|
--------------------------------------------------|
--------------------------------------------------|


   S  S  S  S  S  S  S  S  S  S  S  S  S  S  S  S  
--42-46-46-42-46-46-46-46-46-46-46-46-49-49-49-49-|
--------------------------------------------------|
--------------------------------------------------|
--------------------------------------------------|
--------------------------------------------------|
--------------------------------------------------|


   S  S  S  S  S  S  S  S  S  S  S  S  S  S  S  S  
--49-49-49-------------------49-49-49-------------|
--57-57-57-55-55-55-57-57-57-57-57-57-55-55-55-57-|
-----------46-46-46-46-46-46----------46-46-46-46-|
--------------------------------------------------|
--------------------------------------------------|
--------------------------------------------------|


   S  S  S  S  S  S  S  S  S  S  S  S  S  S  S  S  
-----------49-49-49-49-49-49----------49-49-49-49-|
--55-55-55-57-57-57-55-55-55-57-57-57-57-57-55-55-|
--46-46-46-------------------46-46-46-------------|
--------------------------------------------------|
--------------------------------------------------|
--------------------------------------------------|


   S  S  S  S  S  S  S  S  S  S  S  S  S  S  S  S  
-----------49-49-49-49-49-49----------49-49-49-49-|
--55-55-55-57-57-57-55-55-55-57-57-57-57-57-55-55-|
--46-46-46-------------------46-46-46-------------|
--------------------------------------------------|
--------------------------------------------------|
--------------------------------------------------|


   S  S  S  S  S  S  S  S  S  S  S  S  S  S  S  S  
--49-49-49-------------------49-49-49-------------|
--57-57-57-55-55-55-57-57-57-57-57-57-55-55-55-57-|
-----------46-46-46-46-46-46----------46-46-46-46-|
--------------------------------------------------|
--------------------------------------------------|
--------------------------------------------------|


   S  S  S  S  S  S  S  S  S  S  S  S  S  S  S  S  
--49-49-49-------------------49-49-49-------------|
--57-57-57-55-55-55-57-57-57-57-57-57-55-55-55-57-|
-----------46-46-46-46-46-46----------46-46-46-46-|
--------------------------------------------------|
--------------------------------------------------|
--------------------------------------------------|


   E   E   E   E   E   E   E   E      Q     Q     Q     Q     
--49--49------------------49--49--|--49----49----49----------|
--57--57--55--55--57--57--57--57--|--57----57----57----55----|
----------46--46--46--46----------|--------------------46----|
----------------------------------|--------------------------|
----------------------------------|--------------------------|
----------------------------------|--------------------------|


      H        H            Q     Q     Q     Q     
--38g38-----------------|--46----46----46----46----|
-----36-----------------|--------------------------|
-----49-----------------|--------------------------|
------------------------|--------------------------|
------------------------|--------------------------|
------------------------|--------------------------|


   S  S  S  S  Q     S  S  S  S  Q        Q      
--38-38-38-38-38----38-38-38-38-38----|---L----||
--------------------------------49----|---L----||
--------------------------------------|--------||
--------------------------------------|--------||
--------------------------------------|--------||
--------------------------------------|--------||




Drums Legend:
---------------
Drums:

31...Sticks
37...Side Stick
38...Snare
40...Electric Snare
35...Acoustic Bass Drum
36...Bass Drum
41...Low Floor Tom
43...High Floor Tom
45...Low Tom
47...Low-Mid Tom
48...Hi-Mid Tom
50...High Tom


Cymbals:

42...Closed Hi Hat
44...Pedal Hi Hat
46...Open Hi Hat
49...Crash Cymbal 1
51...Ride Cymbal 1
52...Chinese Cymbal
55...Splash Cymbal
57...Crash Cymbal 2
59...Ride Cymbal 2


Others:

27...High Q
28...Slap
29...Scratch Push
30...Scratch Pull
32...Square Click
33...Metronome Click
34...Metronome Bell
39...Hand Clap
53...Ride Bell
54...Tambourine
56...Cowbell
58...Vibraslap
60...High Bongo
61...Low Bongo
62...Mute High Conga
63...Open High Conga
64...Low Conga
65...High Timbale
66...Low Timbale
67...High Agogo
68...Low Agogo
69...Cabasa
70...Maracas
71...Short Whistle
72...Long Whistle
73...Short Guiro
74...Long Guiro
75...Claves
76...High Wood Block
77...Low Wood Block
78...Mute Cuica
79...Open Cuica
80...Mute Triangle
81...Open Triangle
82...Shaker
83...Jingle Bell
84...Bell Tree
85...Castinets
86...Mute Surdo
87...Open Surdo



Duration Legend
---------------
W - whole
H - half
Q - quarter
E - 8th
S - 16th
T - 32nd
X - 64th
. - note dotted
|-n-|  - n-tuplets



Tablature Legend
----------------
L - tied note
x - dead note
g - grace note
(n) - ghost note
> - accentuded note
NH - natural harmonic
AH - artificial harmonic
TH - tapped harmonic
SH - semi harmonic
PH - pitch harmonic
h - hammer on
p - pull off
b - bend
br - bendRelease
pb - preBend
pbr - preBendRelease
brb - bendReleaseBend
\n/ - tremolo bar dip
\n - tremolo bar dive
-/n - tremolo bar Release up
/n\ - tremolo bar inverted dip
/n - tremolo bar return
-\n - tremolo bar Release down
S - shift slide
s - legato slide
/ -  slide into from below or out of upwards
\ -  slide into from above or out of downwards
~ - vibrato
W - wide vibrato
tr - trill
TP - tremolo picking
T - tapping
S - slap
P - pop
< - fade in
^ - brush up
v - brush down

            
            
Suggest correction
Creating personal tab
Creating personal tab
You can edit any tab online and save it as your Personal.

You can edit, replace or remove any tab part or add personal notes – all changes will be seen only by you.

Personal tabs can be accessed anytime from any device, even offline.
Learn more »
comments
print report bad tab
guest
You may want to rate the tab now too:
select rating
Wanna post a correction for this tab? Suggest correction