Oops, an error
Loading. Please wait.

Hallowed Be Thy Name Tab

version 3
43,386 views 36 this week
2 commentsread comments
1 2 3 4 5
x 23
add to favorites
launch autoscroll
font size
0
reset
how to read this tab
guitar tuner
Autoscroll
slow
fast
+/-
esc
set tempo
stop
Help us to improve Ultimate-Guitar.com Take our survey!
×
HALLOWED BE THY NAME
As recorded by Iron Maiden
(From the 1982 Album THE NUMBER OF THE BEAST)

Transcribed by Juancho
        

Words and Music by Steve Harris
Arranged by Iron Maiden

C5
x 3 5 5 x x
        
D5
x 5 7 7 x x
        
E5
x 7 9 9 x x
        
G5
3 5 5 x x x

A5
5 7 7 x x x
        
B5
x 2 4 4 x x
        
B5VII
7 9 9 x x x
        
C(type 2)
x 3 x x 5 x

D(type 2)
x 5 x x 7 x
        
Em(type 2)
x 7 x x 8 x
        
F#m(type 2)
x 9 x x 10 x
        
G(type 2)
x 10 x x 12 x

B(type 2)
x 2 x x 4 x

Gtr I (E A D G B E) - 'Untitled'
Gtr II (E A D G B E) - 'Dave Murray'
Gtr III (E A D G B E) - 'Adrian Smith'
Gtr IV (E A D G B E) - 'Adrian Smith'
Gtr V (E A D G B E) - 'Untitled'

[Intro]

   Slowly Q=82
     G  F#mEmD EmD C D     G  F#mEmD EmD C B
  4/4
   Gtr I
   e  e  e e S S e e E   e  e  e e S S e e E
e|---------------------|---------------------|
B|---12-10-8-7-8-7-5-7-|---12-10-8-7-8-7-5-4-|
G|---------------------|---------------------|
D|---------------------|---------------------|
A|---10--9-7-5-7-5-3-5-|---10--9-7-5-7-5-3-2-|
E|---------------------|---------------------|
  e  e  e e S S e e E   E  e  e e S S e e E


     G  F#mEmD EmD C D     G  F#mEmD EmD C B
   e  e  e e S S e e E   e  e  e e S S e e E
e|---------------------|----------------------||
B|---12-10-8-7-8-7-5-7-|---12-10-8-7-8-7-5-4--||
G|---------------------|----------------------||
D|---------------------|----------------------||
A|---10--9-7-5-7-5-3-5-|---10--9-7-5-7-5-3-2--||
E|---------------------|----------------------||
  e  e  e e S S e e E   E  e  e e S S e e E


   [1st Verse]

     E  e  e e S S e e E   e  e  e e S S e e E
e||----------------------|---------------------|
B||o---12-10-8-7-8-7-5-7-|---12-10-8-7-8-7-5-4-|
G||----------------------|---------------------|
D||----------------------|---------------------|
A||o---10--9-7-5-7-5-3-5-|---10--9-7-5-7-5-3-2-|
E||----------------------|---------------------|
    E  e  e e S S e e E   E  e  e e S S e e E


   e  e  e e S S e e E   e  e  e e S S e e E   4x
e|---------------------|-----------------------||
B|---12-10-8-7-8-7-5-7-|---12-10-8-7-8-7-5-4--o||
G|---------------------|-----------------------||
D|---------------------|-----------------------||
A|---10--9-7-5-7-5-3-5-|---10--9-7-5-7-5-3-2--o||
E|---------------------|-----------------------||
  e  e  e e S S e e E   E  e  e e S S e e E


    Riff A
     Faster Q=120
     E5                                  C5
     Gtr II
     E  E       E  E    S  S  E   E  E   E  E       E  E    S  S  E   E E
e||------------------------------------|----------------------------------|
B||o-----------------------------------|----------------------------------|
G||----14b16r==14-12---11h12-11---9-11-|---14b16r==14-12---11h12-11---9-8-|
D||------------------------------------|----------------------------------|
A||o-----------------------------------|----------------------------------|
E||------------------------------------|----------------------------------|
|
 |   Gtr IV
 |   E  S    S  E  S S  E     S S E  E   E  S    S  E  S S  E     S S E E
e||------------------------------------|----------------------------------|
B||o-----------------------------------|----------------------------------|
G||--9--9----9--9--9-9--9-----9-9-9--9-|-5--5----5--5--5-5--5-----5-5-5-5-|
D||--9--9----9--9--9-9--9-----9-9-9--9-|-5--5----5--5--5-5--5-----5-5-5-5-|
A||o-7--7----7--7--7-7--7-----7-7-7--7-|-3--3----3--3--3-3--3-----3-3-3-3-|
E||------------------------------------|----------------------------------|


   D5
   E  E       E  E    S  S  E   E  E
e|-----------------------------------|
B|-----------------------------------|
G|---14b16r==14-12---11h12-11---9-11-|
D|-----------------------------------|
A|-----------------------------------|
E|-----------------------------------|
|
 | E  S    S  E  S S  E     S S E  E
e|-----------------------------------|
B|-----------------------------------|
G|-7--7----7--7--7-7--7-----7-7-7--7-|
D|-7--7----7--7--7-7--7-----7-7-7--7-|
A|-5--5----5--5--5-5--5-----5-5-5--5-|
E|-----------------------------------|


  1.                                  2.
   E5                                 E5
   E  E       E  E  S  S  E E   E     E  E       E  E  S  S  E E   E
e|---------------------------------||--------------------------------|
B|--------------------------------o||--------------------------------|
G|---14b16r==14-12-11h12-11-9---8--||---14b16r==14-12-11h12-11-9---8-|
D|---------------------------------||--------------------------------|
A|--------------------------------o||--------------------------------|
E|---------------------------------||--------------------------------|
|
 | E  S    S  E  E  S  S  E S S E     E  S    S  E  E  S  S  E S S E
e|---------------------------------||--------------------------------|
B|--------------------------------o||--------------------------------|
G|-9--9----9--9--9-----------------||-9--9----9--9--9----------------|
D|-9--9----9--9--9--5p=4----5p4----||-9--9----9--9--9--5p=4----5p4---|
A|-7--7----7--7--7--------7-----7-o||-7--7----7--7--7--------7-----7-|
E|---------------------------------||--------------------------------|


    Riff B
     Gtrs II, III
                               ~~~~~~~~                        ~
     S S S S S S S S E S S S S E   +S  S S S S S S S E S S S S E  4x
e||------------------------------|--------------------------------||
B||o-----------------------------|-------------------------------o||
G||------------------4-----------|-------------------4------------||
D||----4-5-4-5-7-5-4---5-4-5-4---|-------4---4-5-4-5---5-4-5-4----||
A||o-7-------------------------7-|-(7)-7---7-------------------7-o||
E||------------------------------|--------------------------------||


 [2nd Verse]

   E5         G5  C5         A5  D5         B5  E5 B5    C5    N.C.
   Q  Q  Q  E E   Q  Q  Q  E E   Q  Q  Q  E E   E. S +E  E +S  S S S S S S S
e|--------------|--------------|--------------|------------------------------|
B|--------------|--------------|--------------|------------------------------|
G|-9------------|-5------------|-7------------|-9--4-(4)-5-(5)---------------|
D|-9----------5-|-5----------7-|-7----------9-|-9--4-(4)-5-(5)-------5-4-----|
A|-7----------5-|-3----------7-|-5----------9-|-7--2-(2)-3-(3)-2-3-2-----7-5-|
E|------------3-|------------5-|------------7-|------------------------------|


   Q   Q  Q  E E   Q  Q  Q  E E   Q  Q  Q  E E   E. S +E  E +S  S S S S S S S
e|---------------|--------------|--------------|------------------------------|
B|---------------|--------------|--------------|------------------------------|
G|-9\------------|-5------------|-7------------|-9--4-(4)-5-(5)---------------|
D|-9\----------5-|-5----------7-|-7----------9-|-9--4-(4)-5-(5)-------5-4-----|
A|-7\----------5-|-3----------7-|-5----------9-|-7--2-(2)-3-(3)-2-3-2-----7-5-|
E|-------------3-|------------5-|------------7-|------------------------------|


     E5                      C5
     E S S E S S E S S E E   E S S E S S E S S E E
e||------------------------|-----------------------|
B||o-----------------------|-----------------------|
G||--9-9-9-9-9-9-9-9-9-9-9-|-5-5-5-5-5-5-5-5-5-5-5-|
D||--9-9-9-9-9-9-9-9-9-9-9-|-5-5-5-5-5-5-5-5-5-5-5-|
A||o-7-7-7-7-7-7-7-7-7-7-7-|-3-3-3-3-3-3-3-3-3-3-3-|
E||------------------------|-----------------------|


   D5                      E5 B5    C5    N.C.
   E S S E S S E S S E E   E. S +E  E +S  S S S S S S S
e|-----------------------|--------------------------------||
B|-----------------------|-------------------------------o||
G|-7-7-7-7-7-7-7-7-7-7-7-|-9--4-(4)-5-(5)-----------------||
D|-7-7-7-7-7-7-7-7-7-7-7-|-9--4-(4)-5-(5)-------5-4-------||
A|-5-5-5-5-5-5-5-5-5-5-5-|-7--2-(2)-3-(3)-2-3-2-----7-5--o||
E|-----------------------|--------------------------------||


    Riff B
                               ~~~~~~~~                        ~
     S S S S S S S S E S S S S E   +S  S S S S S S S E S S S S E  4x
e||------------------------------|--------------------------------||
B||o-----------------------------|-------------------------------o||
G||------------------4-----------|-------------------4------------||
D||----4-5-4-5-7-5-4---5-4-5-4---|-------4---4-5-4-5---5-4-5-4----||
A||o-7-------------------------7-|-(7)-7---7-------------------7-o||
E||------------------------------|--------------------------------||


    Riff C
     Em
     Gtr II
     Q  +S  S S S Q  +S  S S S   E S S E S S E S S S S E
e||----------------------------|-------------------------|
B||o---------------------------|-------------------------|
G||---------------4--(4)-4-----|-------4-----------4-----|
D||-----------4-5----------5-4-|---4-5---5-4---4-5---5-4-|
A||o-7--(7)-7------------------|-7-----------7-----------|
E||----------------------------|-------------------------|
|
 |   Gtr III
 |   Q  +S  S S S Q  +S  S S S   E S S E S S E S S S S E
e||----------------------------|-------------------------|
B||o---------------------------|-------------------------|
G||---------------4--(4)-4-----|-------4-----------4-----|
D||-----------4-5----------5-4-|---4-5---5-4---4-5---5-4-|
A||o-7--(7)-7------------------|-7-----------7-----------|
E||----------------------------|-------------------------|


   C
   Q  +S  S S S Q  +S  S S S   E S S E S S E S S S S E
e|---------------------------|----------------------------||
B|---------------------------|---------------------------o||
G|--------------4--(4)-4-----|-------4-----------4--------||
D|----------4-5----------5-4-|---4-5---5-4---4-5---5-4----||
A|-3--(3)-3------------------|-3-----------3-------------o||
E|---------------------------|----------------------------||
|
 | Q  +S  S S S Q  +S  S S S   E S S E S S E S S S S E
e|---------------------------|----------------------------||
B|---------------------------|---------------------------o||
G|--------------4--(4)-4-----|-------4-----------4--------||
D|----------4-5----------5-4-|---4-5---5-4---4-5---5-4----||
A|-7--(7)-7------------------|-7-----------7-------------o||
E|---------------------------|----------------------------||


    Riff C Harmony
     Em
     Q.   S S Q.   S S   E S S E S S E S S S S E
e||--------------------|-------------------------|
B||o-------------------|-------------------------|
G||-----------4--------|-------4-----------4-----|
D||-------4-5------5-4-|---4-5---5-4---4-5---5-4-|
A||o-7-----------------|-7-----------7-----------|
E||--------------------|-------------------------|
|
 |   Q.   S S Q.   S S   E S S E S S E S S S S E
e||--------------------|-------------------------|
B||o-------------------|-------------------------|
G||-----------7--------|-------7-----------7-----|
D||--5----7-9------9-7-|-5-7-9---9-7-5-7-9---9-7-|
A||o-------------------|-------------------------|
E||--------------------|-------------------------|


   Q.   S S  Q.   S S   E S S E S S E S S S S E
e|--------------------|----------------------------||
B|--------------------|---------------------------o||
G|-----------4--------|-------4-----------4--------||
D|------4-5-------5-4-|---4-5---5-4---4-5---5-4----||
A|-7------------------|-7-----------7-------------o||
E|--------------------|----------------------------||
|
 | Q.   S S  Q.   S S   E S S E S S E S S S S E
e|--------------------|----------------------------||
B|--------------------|---------------------------o||
G|----------/9--------|-------7-----------7--------||
D|-5----7-9-------9-7-|-5-7-9---9-7-5-7-9---9-7----||
A|--------------------|---------------------------o||
E|--------------------|----------------------------||


   [3rd Verse]

     E5                      C5
     Gtrs II, III
     E S S E S S E S S E E   E S S E S S E S S E E
e||------------------------|-----------------------|
B||o-----------------------|-----------------------|
G||--9-9-9-9-9-9-9-9-9-9-9-|-5-5-5-5-5-5-5-5-5-5-5-|
D||--9-9-9-9-9-9-9-9-9-9-9-|-5-5-5-5-5-5-5-5-5-5-5-|
A||o-7-7-7-7-7-7-7-7-7-7-7-|-3-3-3-3-3-3-3-3-3-3-3-|
E||------------------------|-----------------------|


   D5                      E5          N.C.
   E S S E S S E S S E E   E S S E E S S E S S E    4x
e|-----------------------|--------------------------||
B|-----------------------|-------------------------o||
G|-7-7-7-7-7-7-7-7-7-7-7-|-9-9-9-9-9----------------||
D|-7-7-7-7-7-7-7-7-7-7-7-|-9-9-9-9-9-5p4---5p4------||
A|-5-5-5-5-5-5-5-5-5-5-5-|-7-7-7-7-7-----7-----7---o||
E|-----------------------|--------------------------||


    Riff C
     Em
     Gtr II
     Q.   S S Q.   S S   E S S E S S E S S S S E
e||--------------------|-------------------------|
B||o-------------------|-------------------------|
G||-----------4--------|-------4-----------4-----|
D||-------4-5------5-4-|---4-5---5-4---4-5---5-4-|
A||o-7-----------------|-7-----------7-----------|
E||--------------------|-------------------------|
|
 |   Gtr III
 |   Q.   S S Q.   S S   E S S E S S E S S S S E
e||--------------------|-------------------------|
B||o-------------------|-------------------------|
G||-----------4--------|-------4-----------4-----|
D||-------4-5------5-4-|---4-5---5-4---4-5---5-4-|
A||o-7-----------------|-7-----------7-----------|
E||--------------------|-------------------------|


   C
   Q.   S S Q.   S S   E S S E S S E S S S S E
e|-------------------|----------------------------||
B|-------------------|---------------------------o||
G|----------4--------|-------4-----------4--------||
D|------4-5------5-4-|---4-5---5-4---4-5---5-4----||
A|-3-----------------|-3-----------3-------------o||
E|-------------------|----------------------------||
|
 | Q.   S S Q.   S S   E S S E S S E S S S S E
e|-------------------|----------------------------||
B|-------------------|---------------------------o||
G|----------4--------|-------4-----------4--------||
D|------4-5------5-4-|---4-5---5-4---4-5---5-4----||
A|-7-----------------|-7-----------7-------------o||
E|-------------------|----------------------------||


[Bridge]

   E5                                            B5
   E  E  E  E E  E  E  E    E    E  E  E E  E  E  E
e|-----------------------|--------------------------|
B|---12---------12-------|------12---------12-------|
G|-9----11-12-9----11-12-|--9------11-12-9----11-12-|
D|-----------------------|--------------------------|
A|-----------------------|--------------------------|
E|-----------------------|--------------------------|
|
 | W                       +H..                   E
e|-----------------------|--------------------------|
B|-----------------------|--------------------------|
G|-9---------------------|-(9)----------------------|
D|-9---------------------|-(9)--------------------9-|
A|-7---------------------|-(7)--------------------9-|
E|-----------------------|------------------------7-|


   E5                                            G5
   E  E  E  E E  E  E  E    E    E  E  E E  E  E  E
e|-----------------------|--------------------------|
B|---12---------12-------|------12---------12-------|
G|-9----11-12-9----11-12-|--9------11-12-9----11-12-|
D|-----------------------|--------------------------|
A|-----------------------|--------------------------|
E|-----------------------|--------------------------|
|
 | W                       +H..                   E
e|-----------------------|--------------------------|
B|-----------------------|--------------------------|
G|-9---------------------|-(9)----------------------|
D|-9---------------------|-(9)--------------------5-|
A|-7---------------------|-(7)--------------------5-|
E|-----------------------|------------------------3-|


   C5                                            B5
   E  E  E  E E  E  E  E    E    E  E  E E  E  E  E
e|-----------------------|--------------------------|
B|---12---------12-------|------12---------12-------|
G|-9----11-12-9----11-12-|--9------11-12-9----11-12-|
D|-----------------------|--------------------------|
A|-----------------------|--------------------------|
E|-----------------------|--------------------------|
|
 | W                       +H..                   E
e|-----------------------|--------------------------|
B|-----------------------|--------------------------|
G|-5---------------------|-(5)----------------------|
D|-5---------------------|-(5)--------------------9-|
A|-3---------------------|-(3)--------------------9-|
E|-----------------------|------------------------7-|


   E5
   E  E  E  E E  E  E  E    E   E  E  E E  E  E  E
e|-----------------------|-------------------------|
B|---12---------12-------|-----12---------12-------|
G|-9----11-12-9----11-12-|--9-----11-12-9----11-12-|
D|-----------------------|-------------------------|
A|-----------------------|-------------------------|
E|-----------------------|-------------------------|
|
 | W                       +W
e|-----------------------|-------------------------|
B|-----------------------|-------------------------|
G|-9---------------------|-(9)---------------------|
D|-9---------------------|-(9)---------------------|
A|-7---------------------|-(7)---------------------|
E|-----------------------|-------------------------|


    Fast Part
     N.C.
     Gtrs II, III
     S S S S S S S S S S S S E E   S S S S S S S S S S S S E E
e||------------------------------|------------------------------||
B||o-----------------------------|-----------------------------o||
G||------------4-----------------|-----------4------------------||
D||----4-5-4-5---5-4-5-4-----5-7-|---4-5-4-5---5-4-5-4-----5-7--||
A||o-7-------------------7-5-3-5-|-7-------------------7-5-3-5-o||
E||------------------------------|------------------------------||


[Rhythm for Solo]

   Q=220
   E5
   Gtrs II, III
     PM|   PM|   PM--|   PM|            PM|   PM|   PM
   E E E E E E E E   E E E E Q  E E   E E E E E E E E   E E Q  E E Q
e|-----------------|----------------|-----------------|---------------|
B|-----------------|----------------|-----------------|---------------|
G|-9-----9-----9---|---9-----9--9-9-|-9-----9-----9---|---------------|
D|-9-----9-----9---|---9-----9--9-9-|-9-----9-----9---|-5p4-0---------|
A|-7-7-7-7-7-7-7-7-|-7-7-7-7-7--7-7-|-7-7-7-7-7-7-7-7-|--------3p2----|
E|-----------------|----------------|-----------------|------------3--|


   D5
     PM|   PM|   PM--|   PM|            PM|   PM|   PM
   E E E E E E E E   E E E E Q  E E   E E E E E E E E   E E Q  E E Q
e|-----------------|----------------|-----------------|---------------||
B|-----------------|----------------|-----------------|---------------||
G|-7-----7-----7---|---7-----7--7-7-|-7-----7-----7---|---------------||
D|-7-----7-----7---|---7-----7--7-7-|-7-----7-----7---|-5p4-0---------||
A|-5-5-5-5-5-5-5-5-|-5-5-5-5-5--5-5-|-5-5-5-5-5-5-5-5-|--------3p2----||
E|-----------------|----------------|-----------------|------------3--||


   E5
     PM|   PM|   PM--|   PM|            PM|   PM|   PM
   E E E E E E E E   E E E E Q  E E   E E E E E E E E   E E Q  E E Q
e|-----------------|----------------|-----------------|---------------|
B|-----------------|----------------|-----------------|---------------|
G|-9-----9-----9---|---9-----9--9-9-|-9-----9-----9---|---------------|
D|-9-----9-----9---|---9-----9--9-9-|-9-----9-----9---|-5p4-0---------|
A|-7-7-7-7-7-7-7-7-|-7-7-7-7-7--7-7-|-7-7-7-7-7-7-7-7-|--------3p2----|
E|-----------------|----------------|-----------------|------------3--|


   D5
                                                      G
     PM|   PM|   PM--|   PM|            PM|   PM|   PM
   E E E E E E E E   E E E E Q  E E   E E E E E E E E
e|-----------------|----------------|-----------------|
B|-----------------|----------------|-----------------|
G|-7-----7-----7---|---7-----7--7-7-|-7-----7-----7---|
D|-7-----7-----7---|---7-----7--7-7-|-7-----7-----7---|
A|-5-5-5-5-5-5-5-5-|-5-5-5-5-5--5-5-|-5-5-5-5-5-5-5-5-|
E|-----------------|----------------|-----------------|
|
 | Gtr III
 |   PM|   PM|   PM--|   PM|            PM|   PM|   PM
 | E E E E E E E E   E E E E Q  E E   E E E E E E E E
e|-----------------|----------------|-----------------|
B|-----------------|----------------|-----------------|
G|-7-----7-----7---|---7-----7--7-7-|-7-----7-----7---|
D|-7-----7-----7---|---7-----7--7-7-|-7-----7-----7---|
A|-5-5-5-5-5-5-5-5-|-5-5-5-5-5--5-5-|-5-5-5-5-5-5-5-5-|
E|-----------------|----------------|-----------------|


  tr V
   TPTPTPTPTPTPTPTPTPTPTPTPTPTPTPTP
   S S S S S S S S S S S S S S S S
e|----------------------------------||
B|----------------------------------||
G|----------------------------------||
D|-xsxsxsxsxsxsxsxsxsxsxsxsxsxsxsx--||
A|-xsxsxsxsxsxsxsxsxsxsxsxsxsxsxsx--||
E|----------------------------------||
|
 | E   E   Q       E   E   Q
e|----------------------------------||
B|----------------------------------||
G|----------------------------------||
D|-5p==4---0------------------------||
A|-----------------3p==2------------||
E|-------------------------3--------||


 [Solo 1] (Dave Murray)

   E5
   Gtr II
   ~~~                    ~~~
   H.            Q       +H.          Q
e|---------------------|------------------|
B|---------------------|--------------0---|
G|-2b4-----------2b4r==|=(2)--------------|
D|---------------------|------------------|
A|---------------------|------------------|
E|---------------------|------------------|
|
 | Gtr III
 |     PM|   PM|     PM--|     PM|
 | E   E E E E E E   E    E  E E E Q  E E
e|---------------------|------------------|
B|---------------------|------------------|
G|-9-------9-----9-----|-----9-----9--9-9-|
D|-9-------9-----9-----|-----9-----9--9-9-|
A|-7---7-7-7-7-7-7---7-|--7--7-7-7-7--7-7-|
E|---------------------|------------------|


  |--3--| |--3--| |--3--| |--3--|   |--3--| |-3-| |--3--| |-3-|
  E E   E E E   E E E   E E E   E   E E   E E E E E E   E E E E
|---------------------------------|------------------------------|
|-5p3p==0-5p3p==0-5p3p==0-5p3p==0-|-5p3p==0-5p3p0-5p3p==0-5p3p0--|
|---------------------------------|------------------------------|
|---------------------------------|------------------------------|
|---------------------------------|------------------------------|
|---------------------------------|------------------------------|
|
 |     PM--|       PM--|       PM
 | E   E   E   E   E   E   E   E     E   E   Q     E   E   Q
e|---------------------------------|------------------------------|
B|---------------------------------|------------------------------|
G|-9-----------9-----------9-------|------------------------------|
D|-9-----------9-----------9-------|-5p==4---0--------------------|
A|-7---7---7---7---7---7---7---7---|---------------3p==2----------|
E|---------------------------------|-----------------------3------|


  D5
  |--3--| |--3--| |--3--| |--3--|   |--3--| |--3--| |-3-| |--3--|
  E E   E E E   E E E   E E E   E   E E   E E E   E E E E E E   E
|---------------------------------|-------------------------------|
|-8p5p==0-7p5p==0-8p5p==0-7p5p==0-|-8p5p==0-7p5p==0-8p5p0-7p5p==0-|
|---------------------------------|-------------------------------|
|---------------------------------|-------------------------------|
|---------------------------------|-------------------------------|
|---------------------------------|-------------------------------|
|
|     PM--|       PM--|       PM----|       PM--|
| E   E   E   E   E   E   E   E     E   E   E   E   Q     E   E
|---------------------------------|-------------------------------|
|---------------------------------|-------------------------------|
|-7-----------7-----------7-------|-----7-----------7-----7---7---|
|-7-----------7-----------7-------|-----7-----------7-----7---7---|
|-5---5---5---5---5---5---5---5---|-5---5---5---5---5-----5---5---|
|---------------------------------|-------------------------------|


  |--3--| |--3--| |--3--|
  E E   E E E   E E E   E E  E   E  E E    E  E  E  E  E
|------------------------------|-------------------12-------|
|-8p5p==0-7p5p==0-8p5p==0------|-------------13-15----12----|
|-------------------------5s12p|=9h12-9\-/14----------------|
|------------------------------|----------------------------|
|------------------------------|----------------------------|
|------------------------------|----------------------------|
|
 |     PM--|       PM--|      PM
 | E   E   E   E   E   E   E  E   E  E Q       E  E  Q
e|------------------------------|----------------------------|
B|------------------------------|----------------------------|
G|-7-----------7-----------7----|----------------------------|
D|-7-----------7-----------7----|-5p=4-0---------------------|
A|-5---5---5---5---5---5---5--5-|--------------3p=2----------|
E|------------------------------|--------------------3-------|


  E5
           |---3---|  |---3---|  |---3----|    |---3---|  |---3---|  |--3--|  |---3---|
   Q       E  E    E  E  E    E  E   E    E    E  E    E  E  E    E  E  E  E  E  E    E
|---------12-15---12----12---15-12-/12------|-12-12------12-----------------------------|
|-15b17--------------12------------------15-|---------15----15p==12-15p12-12------------|
|-------------------------------------------|-------------------------------------------|
|-------------------------------------------|--------------------------------14-12---14p|
|-------------------------------------------|-------------------------------------------|
|-------------------------------------------|-------------------------------------------|
|
|       PM|           PM---|           PM-----|           PM---|
|  E    E  E    E     E    E     E     E       E    E     E    E     Q        E    E
|-------------------------------------------|-------------------------------------------|
|-------------------------------------------|-------------------------------------------|
|--9------------9----------------9----------|-------9----------------9--------9----9----|
|--9------------9----------------9----------|-------9----------------9--------9----9----|
|--7----7--7----7-----7----7-----7-----7----|--7----7-----7----7-----7--------7----7----|
|-------------------------------------------|-------------------------------------------|


                              \2
    E  E  E  E  E  E  E  E    H.          E  E
e|-------------------------|-------------------------|
B|-------------------------|-------------12-17b20====|
G|-------------------------|-------------12----------|
D|-12-12----14----12----12-|-------------------------|
A|-------14----14----14----|-14----------------------|
E|-------------------------|-------------------------|
|
 |     PM|      PM|      PM
 |  E  E  E  E  E  E  E  E    E E Q  E E  Q
e|-------------------------|-------------------------|
B|-------------------------|-------------------------|
G|--9--------9--------9----|-------------------------|
D|--9--------9--------9----|--5p4-0------------------|
A|--7--7--7--7--7--7--7--7-|---------3p2-------------|
E|-------------------------|--------------3----------|


  D5
                                                                  |---3---|
   +H         +Q     Q         +E.       +E.       +E.       +E.  E  E    E
|---------------------------|-----------------------------------------------|
|-(17)r======(17)---17b20r==|=(17)b20r==(17)b20r==(17)b20r==(17)-15h17p==15-|
|---------------------------|-----------------------------------------------|
|---------------------------|-----------------------------------------------|
|---------------------------|-----------------------------------------------|
|---------------------------|-----------------------------------------------|
|
 |      PM|     PM-|       PM--|                 PM|
 |   E  E E E   E  E  E    E     E     E         E   E     Q       E    E
e|---------------------------|-----------------------------------------------|
B|---------------------------|-----------------------------------------------|
G|---7------7---------7------|---------7-------------------7-------7----7----|
D|---7------7---------7------|---------7-------------------7-------7----7----|
A|---5--5-5-5---5--5--5----5-|---5-----5---------5---5-----5-------5----5----|
E|---------------------------|-----------------------------------------------|


    S  S  S  S  S  S  S  S  S  S  S  S  S  S  S  S     H          E     +E   E  E
e|--------------------------------------------------|-17b19------17b19r(17)-15-15--|
B|-15h17p15h17p15h17p15h17p15h17p15h17p15h17p15h17\-|------------------------------|
G|--------------------------------------------------|------------------------------|
D|--------------------------------------------------|------------------------------|
A|--------------------------------------------------|------------------------------|
E|--------------------------------------------------|------------------------------|
|
 |        PM---|            PM---|            PM
 |  E     E     E     E     E     E     E     E        E    E Q   E      E   Q
e|--------------------------------------------------|------------------------------|
B|--------------------------------------------------|------------------------------|
G|--7-----------------7-----------------7-----------|------------------------------|
D|--7-----------------7-----------------7-----------|--5p===4-0--------------------|
A|--5-----5-----5-----5-----5-----5-----5-----5-----|-------------3p=====2---------|
E|--------------------------------------------------|------------------------3-----|


 [Solo 2] (Adrian Smith)

   E5
           PM|     PM-|    PM--|       PM|
     E     E E E   E  E  E E    E    E E E   Q   E E
e|---------------------------|-----------------------|
B|---------------------------|-----------------------|
G|---9---------9---------9---|-------9-------9---9-9-|
D|---9---------9---------9---|-------9-------9---9-9-|
A|---7-----7-7-7---7--7--7-7-|--7----7-7-7---7---7-7-|
E|---------------------------|-----------------------|
|
 |                                           ~~~~
 |   H            +Q     Q      H           +H
e|---------------------------|-----------------------|
B|--15b17r=======(15)---12---|-----------------------|
G|-(15)b18r======(15)--------|-14b16-------(14)------|
D|---------------------------|-----------------------|
A|---------------------------|-----------------------|
E|---------------------------|-----------------------|


       PM|      PM|           PM
    E  E  E  E  E  E    E     E    E  E Q  E E   Q
e|------------------------------|---------------------|
B|------------------------------|---------------------|
G|--9--------9----------9-------|---------------------|
D|--9--------9----------9-------|--5p=4-0-------------|
A|--7--7--7--7--7--7----7-----7-|----------3p2--------|
E|------------------------------|----------------3----|
|
|                 |---3---|
|  E  E  E  E  E  E  E    E  E    H.            Q
|------------------------------|---------------------|
|----12----12------------------|--------------/15----|
|-14----14----14-12h14p==12----|---------------------|
|---------------------------14-|-14\-----------------|
|------------------------------|---------------------|
|------------------------------|---------------------|


  D5
      PM|      PM|        PM-----|           PM---|
   E  E  E  E  E  E  E    E       E    E     E    E     Q        E    E
|------------------------------|-------------------------------------------|
|------------------------------|-------------------------------------------|
|--7--------7--------7---------|-------7----------------7--------7----7----|
|--7--------7--------7---------|-------7----------------7--------7----7----|
|--5--5--5--5--5--5--5----5----|--5----5-----5----5-----5--------5----5----|
|------------------------------|-------------------------------------------|
|
|                    |---3---|    |--------6---------|  |-------6--------|
|  E  E  E  E  E  E  E  E    E    E  E    E  E  E    E  E  E  E  E  E    E
|-17p14----19p14----17p14------|-19p14------17p14------19p14----17p14------|
|-------15-------15---------15-|---------12---------15-------15---------15-|
|------------------------------|-------------------------------------------|
|------------------------------|-------------------------------------------|
|------------------------------|-------------------------------------------|
|------------------------------|-------------------------------------------|


         PM---|           PM---|          PM
    E    E     E    E     E    E     E    E       E E Q  E E  Q
e|---------------------------------------------|-----------------------|
B|---------------------------------------------|-----------------------|
G|--7---------------7----------------7---------|-----------------------|
D|--7---------------7----------------7---------|--5p4-0----------------|
A|--5----5-----5----5-----5----5-----5----5----|---------3p2-----------|
E|---------------------------------------------|--------------3--------|
|
|  |--------6---------|  |--------6---------|
|  E  E    E  E  E    E  E  E    E  E  E    E    H.          E  S  S
|-19p14------17p14------19p14------17p14------|-14-------------12-12--|
|---------12---------15---------15---------15-|-15----------15--------|
|---------------------------------------------|-----------------------|
|---------------------------------------------|-----------------------|
|---------------------------------------------|-----------------------|
|---------------------------------------------|-----------------------|


  E5
        PM---|           PM---|          PM-----|           PM---|
   E    E     E    E     E    E     E    E       E    E     E    E     Q        E    E
|---------------------------------------------|-------------------------------------------|
|---------------------------------------------|-------------------------------------------|
|--9---------------9----------------9---------|-------9----------------9--------9----9----|
|--9---------------9----------------9---------|-------9----------------9--------9----9----|
|--7----7-----7----7-----7----7-----7----7----|--7----7-----7----7-----7--------7----7----|
|---------------------------------------------|-------------------------------------------|
|
|  |--------6---------|  |--------6---------|    |--------6---------|  |-------6--------|
|  E  E    E  E  E    E  E  E    E  E  E    E    E  E    E  E  E    E  E  E  E  E  E    E
|-15p12------12-------------------------------|-------------------------------------------|
|---------15----15---12-15p12------12---------|-------------------------------------------|
|-------------------------------14----14---12-|-14-12------12-----------------------------|
|---------------------------------------------|---------14----14---12-14p12------------12-|
|---------------------------------------------|-----------------------------14-12h14------|
|---------------------------------------------|-------------------------------------------|


      PM|      PM---|       PM
    E E  E  E  E    E  E    E      E    E  Q    E E Q
e|-------------------------------|---------------------------|
B|-------------------------------|---------------------------|
G|--9-------9----------9---------|---------------------------|
D|--9-------9----------9---------|-5p===4--0-----------------|
A|--7-7--7--7--7----7--7----7----|--------------3p2----------|
E|-------------------------------|------------------3--------|
|
|                                            ~
|                     |---3---|
|  Q    E  E  Q       E  E    E   Q      +E  H        S  S
|-------------------------------|--------------------10-12--|
|-------------------------------|---------------------------|
|-12------12-14b16---14p12------|-9b12r==(9)-9--------------|
|-12---14--------------------14-|---------------------------|
|-------------------------------|---------------------------|
|-------------------------------|---------------------------|


  D5
        PM---|           PM---|          PM-----|           PM---|
   E    E     E    E     E    E     E    E       E    E     E    E     Q        E    E
|---------------------------------------------|-------------------------------------------|
|---------------------------------------------|-------------------------------------------|
|--7---------------7----------------7---------|-------7----------------7--------7----7----|
|--7---------------7----------------7---------|-------7----------------7--------7----7----|
|--5----5-----5----5-----5----5-----5----5----|--5----5-----5----5-----5--------5----5----|
|---------------------------------------------|-------------------------------------------|
|
|  T          T          T          T            T          T          T        T
|  |--------6---------|  |--------6---------|    |--------6---------|  |-------6--------|
|  E  E    E  E  E    E  E  E    E  E  E    E    E  E    E  E  E    E  E  E  E  E  E    E
|-20p10h==12-19p10h==12-20p10h==12-19p10h==12-|-17p10h==12-19p10h==12-17p10h12-15p10h==12-|
|---------------------------------------------|-------------------------------------------|
|---------------------------------------------|-------------------------------------------|
|---------------------------------------------|-------------------------------------------|
|---------------------------------------------|-------------------------------------------|
|---------------------------------------------|-------------------------------------------|


         PM---|           PM|            PM
    E    E     E    E     E   E   E      E         E    E       Q            E  E Q
e|---------------------------------------------|-------------------------------------|
B|---------------------------------------------|-------------------------------------|
G|--7---------------7-------------7------------|-------------------------------------|
D|--7---------------7-------------7------------|---5p===4-------0--------------------|
A|--5----5-----5----5-----5---5---5------5-----|-----------------------------3p=2----|
E|---------------------------------------------|----------------------------------3--|
|
|  T          T
|  |--------6---------|
|  E  E    E  E  E    E  E  +E   E     +E        +E   +E      +E   +E      +H
|-14p10h==12-15p10h==12p10-(10)---------------|-------------------------------------|
|-------------------------------17b19r(17)b19r|=(17)-(17)b19r(17)-(17)b19-(17)------|
|---------------------------------------------|-------------------------------------|
|---------------------------------------------|-------------------------------------|
|---------------------------------------------|-------------------------------------|
|---------------------------------------------|-------------------------------------|


    Riff D
     E5
     Gtr II
       PM|   PM|   PM--|   PM|            PM|   PM|   PM-
     E E E E E E E E   E E E E Q  E E   E E E E E E E E
e||------------------|----------------|-----------------|
B||o-----------------|----------------|-----------------|
G||--9-----9-----9---|---9-----9--9-9-|-9-----9-----9---|
D||--9-----9-----9---|---9-----9--9-9-|-9-----9-----9---|
A||o-7-7-7-7-7-7-7-7-|-7-7-7-7-7--7-7-|-7-7-7-7-7-7-7-7-|
E||------------------|----------------|-----------------|
|
 |   Gtr III
 |     PM|   PM|   PM--|   PM|            PM|   PM|   PM-
 |   E E E E E E E E   E E E E Q  E E   E E E E E E E E
e||------------------|----------------|-----------------|
B||o-----------------|----------------|-----------------|
G||--9-----9-----9---|---9-----9--9-9-|-9-----9-----9---|
D||--9-----9-----9---|---9-----9--9-9-|-9-----9-----9---|
A||o-7-7-7-7-7-7-7-7-|-7-7-7-7-7--7-7-|-7-7-7-7-7-7-7-7-|
E||------------------|----------------|-----------------|


  -|   PM|
   E E E E Q  E E   Q  +E  E Q  +E  E   Q  +E  E Q  +E  E
e|----------------|-------------------|--------------------||
B|----------------|-------------------|-------------------o||
G|---9-----9--9-9-|-------------------|--------------------||
D|---9-----9--9-9-|-5--(5)------------|-5--(5)-------------||
A|-7-7-7-7-7--7-7-|--------7-5--(5)-7-|--------7-5--(5)-7-o||
E|----------------|-------------------|--------------------||
|
|-|   PM|
| E E E E Q  E E   Q  +E  E Q  +E  E   Q  +E  E Q  +E  E
|----------------|-------------------|--------------------||
|----------------|-------------------|-------------------o||
|---9-----9--9-9-|-------------------|--------------------||
|---9-----9--9-9-|-5--(5)------------|-5--(5)-------------||
|-7-7-7-7-7--7-7-|--------7-5--(5)-7-|--------7-5--(5)-7-o||
|----------------|-------------------|--------------------||


   E5
     PM|   PM|   PM--|   PM|            PM|   PM|   PM-
   E E E E E E E E   E E E E Q  E E   E E E E E E E E
e|-----------------|----------------|-----------------|
B|-----------------|----------------|-----------------|
G|-9-----9-----9---|---9-----9--9-9-|-9-----9-----9---|
D|-9-----9-----9---|---9-----9--9-9-|-9-----9-----9---|
A|-7-7-7-7-7-7-7-7-|-7-7-7-7-7--7-7-|-7-7-7-7-7-7-7-7-|
E|-----------------|----------------|-----------------|
|
 |   PM|   PM|   PM--|   PM|            PM|   PM|   PM-
 | E E E E E E E E   E E E E Q  E E   E E E E E E E E
e|-----------------|----------------|-----------------|
B|-----------------|----------------|-----------------|
G|-9-----9-----9---|---9-----9--9-9-|-9-----9-----9---|
D|-9-----9-----9---|---9-----9--9-9-|-9-----9-----9---|
A|-7-7-7-7-7-7-7-7-|-7-7-7-7-7--7-7-|-7-7-7-7-7-7-7-7-|
E|-----------------|----------------|-----------------|


  -|   PM|
   E E E E Q  E E   Q  +E  E Q  +E  E   Q  +E  E Q  +E  E
e|----------------|-------------------|--------------------|
B|----------------|-------------------|--------------------|
G|---9-----9--9-9-|-------------------|--------------------|
D|---9-----9--9-9-|-5--(5)------------|-5--(5)-------------|
A|-7-7-7-7-7--7-7-|--------7-5--(5)-7-|--------7-5--(5)-7--|
E|----------------|-------------------|--------------------|
|
|-|   PM|          ~~~~~~~             ~~~~~~~
| E E E E Q  E E   Q  +E  E Q  +E  E   Q  +E  E Q  +E  E
|----------------|-------------------|--------------------|
|----------------|-8--(8)------------|-8--(8)-------------|
|---9-----9--9-9-|--------9-7--(7)-9-|--------9-7--(7)-9--|
|---9-----9--9-9-|-------------------|--------------------|
|-7-7-7-7-7--7-7-|-------------------|--------------------|
|----------------|-------------------|--------------------|


   E5
     PM|   PM|   PM--|   PM|            PM|   PM|   PM-
   E E E E E E E E   E E E E Q  E E   E E E E E E E E
e|-----------------|----------------|-----------------|
B|-----------------|----------------|-----------------|
G|-9-----9-----9---|---9-----9--9-9-|-9-----9-----9---|
D|-9-----9-----9---|---9-----9--9-9-|-9-----9-----9---|
A|-7-7-7-7-7-7-7-7-|-7-7-7-7-7--7-7-|-7-7-7-7-7-7-7-7-|
E|-----------------|----------------|-----------------|
|
 |   PM|   PM|   PM--|   PM|            PM|   PM|   PM-
 | E E E E E E E E   E E E E Q  E E   E E E E E E E E
e|-----------------|----------------|-----------------|
B|-----------------|----------------|-----------------|
G|-9-----9-----9---|---9-----9--9-9-|-9-----9-----9---|
D|-9-----9-----9---|---9-----9--9-9-|-9-----9-----9---|
A|-7-7-7-7-7-7-7-7-|-7-7-7-7-7--7-7-|-7-7-7-7-7-7-7-7-|
E|-----------------|----------------|-----------------|


 -|   PM|            PM|   PM|   PM--|   PM|
  E E E E Q  E E   E E E E E E E E   E E E E Q  E E
|----------------|-----------------|-----------------|
|----------------|-----------------|-----------------|
|---9-----9--9-9-|-9-----9-----9---|---9-----9--9-9--|
|---9-----9--9-9-|-9-----9-----9---|---9-----9--9-9--|
|-7-7-7-7-7--7-7-|-7-7-7-7-7-7-7-7-|-7-7-7-7-7--7-7--|
|----------------|-----------------|-----------------|
|
|-|   PM|            PM|   PM|   PM--|   PM|
| E E E E Q  E E   E E E E E E E E   E E E E Q  E E
|----------------|-----------------|-----------------|
|----------------|-----------------|-----------------|
|---9-----9--9-9-|-9-----9-----9---|---9-----9--9-9--|
|---9-----9--9-9-|-9-----9-----9---|---9-----9--9-9--|
|-7-7-7-7-7--7-7-|-7-7-7-7-7-7-7-7-|-7-7-7-7-7--7-7--|
|----------------|-----------------|-----------------|


    Riff B Harmony
     Halftime Q=120
                                  ~~~~~~~~~                           ~~
      S S S S S  S S S E S S S S  E    +S   S S  S S S S S E S S S S  E  5x
e||---------------------------------|------------------------------------||
B||o--------------------------------|-----------------------------------o||
G||--------------------4------------|----------------------4-------------||
D||-----4-5-4-5--7-5-4---5-4-5-4----|---------4----4-5-4-5---5-4-5-4-----||
A||o--7---------------------------7-|--(7)--7----7--------------------7-o||
E||---------------------------------|------------------------------------||
|
 |                                ~~~~~~~~~
 |    S S S S S  S S S E S S S S  E    +S   S S  S S S S S E S S S S  E  5x
e||---------------------------------|------------------------------------||
B||o--------------------------------|-----------------------------------o||
G||--------------------7------------|----------------------7-------------||
D||-----7-9-7-9-10-9-7---9-7-9-7----|---------7----7-9-7-9---9-7-9-7-----||
A||o-10--------------------------10-|-(10)-10---10-------------------10-o||
E||---------------------------------|------------------------------------||


                                    E5 B5    C5    N.C.
                                ~~
    S S S S S  S S S E S S S S  E   E. S +E  E +S  S S S S S S S
e|--------------------------------|------------------------------|
B|--------------------------------|------------------------------|
G|-------------------4------------|-9--4-(4)-5-(5)---------------|
D|----4-5-4-5--7-5-4---5-4-5-4----|-9--4-(4)-5-(5)-------5-4-----|
A|--7---------------------------7-|-7--2-(2)-3-(3)-2-3-2-----7-5-|
E|--------------------------------|------------------------------|
|
 |                              ~~
 |  S S S S S  S S S E S S S S  E   W
e|--------------------------------|------------------------------|
B|--------------------------------|------------------------------|
G|-------------------7------------|------------------------------|
D|----7-9-7-9-10-9-7---9-7-9-7----|------------------------------|
A|-10--------------------------10-|------------------------------|
E|--------------------------------|------------------------------|


                                ~~~~~~~~~                           ~~
    S S S S S  S S S E S S S S  E    +S   S S  S S S S S E S S S S  E
e|--------------------------------|-----------------------------------|
B|--------------------------------|-----------------------------------|
G|-------------------4------------|----------------------4------------|
D|----4-5-4-5--7-5-4---5-4-5-4----|---------4----4-5-4-5---5-4-5-4----|
A|--7---------------------------7-|--(7)--7----7--------------------7-|
E|--------------------------------|-----------------------------------|
|
 |                              ~~~~~~~~~                           ~~
 |  S S S S S  S S S E S S S S  E    +S   S S  S S S S S E S S S S  E
e|--------------------------------|-----------------------------------|
B|--------------------------------|-----------------------------------|
G|-------------------7------------|----------------------7------------|
D|----7-9-7-9-10-9-7---9-7-9-7----|---------7----7-9-7-9---9-7-9-7----|
A|-10--------------------------10-|-(10)-10---10-------------------10-|
E|--------------------------------|-----------------------------------|


                                    E5 B5    C5    N.C.
                                ~~
    S S S S S  S S S E S S S S  E   E. S +E  E +S  S S S S S S S
e|--------------------------------|------------------------------|
B|--------------------------------|------------------------------|
G|-------------------4------------|-9--4-(4)-5-(5)---------------|
D|----4-5-4-5--7-5-4---5-4-5-4----|-9--4-(4)-5-(5)-------5-4-----|
A|--7---------------------------7-|-7--2-(2)-3-(3)-2-3-2-----7-5-|
E|--------------------------------|------------------------------|
|
 |                              ~~
 |  S S S S S  S S S E S S S S  E   W
e|--------------------------------|------------------------------|
B|--------------------------------|------------------------------|
G|-------------------7------------|------------------------------|
D|----7-9-7-9-10-9-7---9-7-9-7----|------------------------------|
A|-10--------------------------10-|------------------------------|
E|--------------------------------|------------------------------|


   [Ending Verse]

     E5                      C5
     Gtrs II, III
     E S S E S S E S S E E   E S S E S S E S S E E
e||------------------------|-----------------------|
B||o-----------------------|-----------------------|
G||--9-9-9-9-9-9-9-9-9-9-9-|-5-5-5-5-5-5-5-5-5-5-5-|
D||--9-9-9-9-9-9-9-9-9-9-9-|-5-5-5-5-5-5-5-5-5-5-5-|
A||o-7-7-7-7-7-7-7-7-7-7-7-|-3-3-3-3-3-3-3-3-3-3-3-|
E||------------------------|-----------------------|


                          1.
   D5                      E5
   E S S E S S E S S E E   E S S E E S S E S S E
e|-----------------------|--------------------------||
B|-----------------------|-------------------------o||
G|-7-7-7-7-7-7-7-7-7-7-7-|-9-9-9-9-9----------------||
D|-7-7-7-7-7-7-7-7-7-7-7-|-9-9-9-9-9-5p4---5p4------||
A|-5-5-5-5-5-5-5-5-5-5-5-|-7-7-7-7-7-----7-----7---o||
E|-----------------------|--------------------------||


[Bridge]

   2.
   E5                                            A5
   Gtr II
   E  E  E  E E  E  E  E    E    E  E  E E  E  E  E
e|-----------------------|--------------------------|
B|---12---------12-------|------12---------12-------|
G|-9----11-12-9----11-12-|--9------11-12-9----11-12-|
D|-----------------------|--------------------------|
A|-----------------------|--------------------------|
E|-----------------------|--------------------------|
|
 | Gtr III
 | W                       +H..                   E
e|-----------------------|--------------------------|
B|-----------------------|--------------------------|
G|-9---------------------|-(9)----------------------|
D|-9---------------------|-(9)--------------------7-|
A|-7---------------------|-(7)--------------------7-|
E|-----------------------|------------------------5-|


   D5                                            G5
   E  E  E  E E  E  E  E    E    E  E  E E  E  E  E
e|-----------------------|--------------------------|
B|---12---------12-------|------12---------12-------|
G|-9----11-12-9----11-12-|--9------11-12-9----11-12-|
D|-----------------------|--------------------------|
A|-----------------------|--------------------------|
E|-----------------------|--------------------------|
|
 | W                       +H..                   E
e|-----------------------|--------------------------|
B|-----------------------|--------------------------|
G|-7---------------------|-(7)----------------------|
D|-7---------------------|-(7)--------------------5-|
A|-5---------------------|-(5)--------------------5-|
E|-----------------------|------------------------3-|


   C5                                            A5
   E  E  E  E E  E  E  E    E    E  E  E E  E  E  E
e|-----------------------|--------------------------|
B|---12---------12-------|------12---------12-------|
G|-9----11-12-9----11-12-|--9------11-12-9----11-12-|
D|-----------------------|--------------------------|
A|-----------------------|--------------------------|
E|-----------------------|--------------------------|
|
 | W                       +H..                   E
e|-----------------------|--------------------------|
B|-----------------------|--------------------------|
G|-5---------------------|-(5)----------------------|
D|-5---------------------|-(5)--------------------7-|
A|-3---------------------|-(3)--------------------7-|
E|-----------------------|------------------------5-|


   D5                                            B5
   E  E  E  E E  E  E  E    E    E  E  E E  E  E  E
e|-----------------------|--------------------------|
B|---12---------12-------|------12---------12-------|
G|-9----11-12-9----11-12-|--9------11-12-9----11-12-|
D|-----------------------|--------------------------|
A|-----------------------|--------------------------|
E|-----------------------|--------------------------|
|
 | W                       +H..                   E
e|-----------------------|--------------------------|
B|-----------------------|--------------------------|
G|-7---------------------|-(7)----------------------|
D|-7---------------------|-(7)--------------------9-|
A|-5---------------------|-(5)--------------------9-|
E|-----------------------|------------------------7-|


[Outro]

  Q=200
  E5                                            E5
    >
                                                |-3-|    |-3-|
   +W            W                W             E E E Q  E E E Q     W
|-------------|----------------|--------------|--------------------|------*|
|-------------|----------------|--------------|--------------------|------*|
|-(12)--------|----------------|--------------|-9-9-9-9--9-9-9-9\--|------*|
|-------------|----------------|--------------|-9-9-9-9--9-9-9-9\--|------*|
|-------------|----------------|--------------|-7-7-7-7--7-7-7-7\--|------*|
|-------------|----------------|--------------|--------------------|------*|
|
|   TP           TP
|                                               |-3-|    |-3-|
|   W           +H..       +E    +H..       E   E E E Q  E E E Q     W
|-------------|----------------|--------------|--------------------|------*|
|-------------|----------------|--------------|--------------------|------*|
|---9---------|-(9)--------(9)-|-(9)----------|-9-9-9-9--9-9-9-9\--|------*|
|---9---------|-(9)--------(9)-|-(9)----------|-9-9-9-9--9-9-9-9\--|------*|
|---7---------|-(7)--------(7)-|-(7)----------|-7-7-7-7--7-7-7-7\--|------*|
|-------------|----------------|--------------|--------------------|------*|



Duration Legend
---------------
W - whole; H - half; Q - quarter; E - 8th; S - 16th; T - 32nd; X - 64th; a - acciaccatura
+ - note tied to previous; . - note dotted; .. - note double dotted
Uncapitalized letters represent notes that are staccato (1/2 duration)
Irregular groupings are notated above the duration line
Duration letters will always appear directly above the note/fret number it represents the
duration for.  Duration letters with no fret number below them represent rests.  Multi-
bar rests are notated in the form Wxn, where n is the number of bars to rest for.  Low
melody durations appear below the staff

Tablature Legend
----------------
 h   - hammer-on
 p   - pull-off
 b   - bend
 pb  - pre-bend
 r   - bend release (if no number after the r, then release immediately)
 /\  - slide into or out of (from/to "nowhere")
 s   - legato slide
 S   - shift slide
 - natural harmonic
[n]  - artificial harmonic
n(n) - tapped harmonic
 ~   - vibrato
 tr  - trill
 T   - tap
 TP  - trem. picking
 PM  - palm muting
\n/  - tremolo bar dip; n = amount to dip
 \n  - tremolo bar down
 n/  - tremolo bar up
/n\  - tremolo bar inverted dip
 =   - hold bend; also acts as connecting device for hammers/pulls
 <> - volume swell (louder/softer)
 x   - on rhythm slash represents muted slash
 o   - on rhythm slash represents single note slash

Misc Legend
-----------
 |  - bar
||  - double bar
||o - repeat start
o|| - repeat end
*|  - double bar (ending)
 :  - bar (freetime)
 $  - Segno
 &  - Coda
Tempo markers -  = BPM(8/16=s8/s16), where s8 = swing 8ths, s16 = swing 16ths
Suggest correction
comments
print report bad tab
2 comments total.
+4 reply
tickler444 60 Dec 27, 2008 08:46 AM

This tab may look complicated at first, but it is by far the most complete. 5 stars!

-1 reply
kalumscania 10 Jan 14, 2009 10:46 AM

I have been trying to play this song for ages but i dont think this one is right i think version 2 is lol good try tho

guest
You may want to rate the tab now too:
select rating
Wanna post a correction for this tab? Suggest correction