Oops, an error
Loading. Please wait.

Hallowed Be Thy Name bass

version 5
1,789 views 21 this week
no commentswrite comment
1 2 3 4 5
x 12
add to favorites
×
Save as Personal and add changes to this tab that will be seen only by you. Learn more ›
×
You can save this tab as Personal to edit and correct it or add notes. All changes will be seen only by you. Learn more »
launch autoscroll
font size
0
reset
guitar tuner
backing track
0:00
0:00
edit
Autoscroll
slow
fast
+/-
esc
set tempo
stop
Author
Difficulty
                             Hallowed Be Thy Name                               


                                  Iron Maiden

Steve Harris



          Intro                                                     
     S    W                   W                   W                 
G||----|-------------------|-------------------|-------------------|
D||----|-------------------|-------------------|-------------------|
A||----|-------------------|-------------------|-------------------|
E||----|--0----------------|--0----------------|--0----------------|


  Verso Riff 1                                                                  
  W                   W                   W                   W                 
-------------------|-------------------|-------------------|-------------------|
-------------------|-------------------|-------------------|-------------------|
-------------------|-------------------|-------------------|-------------------|
--0----------------|--0----------------|--0----------------|--0----------------|


  W                   W                   W                   W                 
-------------------|-------------------|-------------------|-------------------|
-------------------|-------------------|-------------------|-------------------|
-------------------|-------------------|-------------------|-------------------|
--0----------------|--0----------------|--0----------------|--0----------------|


  W                   W                   H.           S  E.   
-------------------|-------------------|----------------------|
-------------------|-------------------|----------------------|
-------------------|--3----------------|--5------------5s-7---|
--0----------------|-------------------|----------------------|


  W                   W                   W                 
-------------------|-------------------|-------------------|
-------------------|-------------------|-------------------|
-------------------|-------------------|--3----------------|
--0----------------|--0----------------|-------------------|


  H.           S  E.     W                   W                 
----------------------|-------------------|-------------------|
----------------------|-------------------|-------------------|
--5------------5s-7---|-------------------|-------------------|
----------------------|--0----------------|--0----------------|


  Riff A                                                           
  S      S S S E  S S E  S S E  E     S S S S E  S S E  S S E  E   
-----------------------------------|------------------------------|
-----------------------------------|------------------------------|
--7------7-7-7-7--7-7-7--7-7-7--7--|--3-3-3-3-3--3-3-3--3-3-3--3--|
-----------------------------------|------------------------------|


  S S S S E  S S E  S S E  E     E  S S E  S S S S E  S S E   
------------------------------|------------------------------|
------------------------------|----------------5-4----5-4----|
--5-5-5-5-5--5-5-5--5-5-5--5--|--7--7-7-7--7-7-----7------7--|
------------------------------|------------------------------|


  S S S S E  S S E  S S E  E     S S S S E  S S E  S S E  E   
------------------------------|------------------------------|
------------------------------|------------------------------|
--7-7-7-7-7--7-7-7--7-7-7--7--|--3-3-3-3-3--3-3-3--3-3-3--3--|
------------------------------|------------------------------|


  S S S S E  S S E  S S E  E     E  S S E  S S S S E  S S E   
------------------------------|------------------------------|
------------------------------|----------------5-4----5-4----|
--5-5-5-5-5--5-5-5--5-5-5--5--|--7--7-7-7--7-7-----7------7--|
------------------------------|------------------------------|


    Riff B                                                        
    E      S S E  S S E  S S E  E     E  S S E  S S E  S S E  E   
|----------------------------------|-----------------------------|
|*---------------------------------|-----------------------------|
|*--7------7-7-7--7-7-7--7-7-7--7--|--3--3-3-3--3-3-3--3-3-3--3--|
|----------------------------------|-----------------------------|


  E  S S E  S S E  S S E  E     E  S S E  S S S S E  S S E     
-----------------------------|-------------------------------||
-----------------------------|----------------5-4----5-4----*||
--5--5-5-5--5-5-5--5-5-5--5--|--7--7-7-7--7-7-----7------7--*||
-----------------------------|-------------------------------||


  Verso Riff 2                                                              
  E            H.           E     E  H.           E     E  H.           E   
--9----------------------------|--5------------------|--7------------------|
--9----------------------------|--5------------------|--7------------------|
--7----------------------------|--3------------------|--5------------------|
----------------------------3--|------------------5--|------------------7--|


  E.  E.  E.  S S S S S S S    E  H.           E     E  H.           E   
----------------------------|--9------------------|--5------------------|
--------------------5-4-----|--9------------------|--5------------------|
--7---2---3---2-3-2-----7-5-|--7------------------|--3------------------|
----------------------------|------------------3--|------------------5--|


  E  H.           E     E.  E.  E.  S S S S S S S  
--7------------------|----------------------------|
--7------------------|--------------------5-4-----|
--5------------------|--7---2---3---2-3-2-----7-5-|
------------------7--|----------------------------|


  Verso Riff 3                                                        
  E            S S E  S S E  S S E  E     E  S S E  S S E  S S E  E   
---------------------------------------|-----------------------------|
---------------------------------------|-----------------------------|
--7------------7-7-7--7-7-7--7-7-7--7--|--3--3-3-3--3-3-3--3-3-3--3--|
---------------------------------------|-----------------------------|


  E  S S E  S S E  S S E  E     E.  E.  E.  S S S S S S S  
-----------------------------|----------------------------|
-----------------------------|--------------------5-4-----|
--5--5-5-5--5-5-5--5-5-5--5--|--7---2---3---2-3-2-----7-5-|
-----------------------------|----------------------------|


  E  S S E  S S E  S S E  E     E  S S E  S S E  S S E  E   
-----------------------------|-----------------------------|
-----------------------------|-----------------------------|
--7--7-7-7--7-7-7--7-7-7--7--|--3--3-3-3--3-3-3--3-3-3--3--|
-----------------------------|-----------------------------|


  E  S S E  S S E  S S E  E     E.  E.  E.  S S S S S S S  
-----------------------------|----------------------------|
-----------------------------|--------------------5-4-----|
--5--5-5-5--5-5-5--5-5-5--5--|--7---2---3---2-3-2-----7-5-|
-----------------------------|----------------------------|


    Riff B                                                        
    E      S S E  S S E  S S E  E     E  S S E  S S E  S S E  E   
|----------------------------------|-----------------------------|
|*---------------------------------|-----------------------------|
|*--7------7-7-7--7-7-7--7-7-7--7--|--3--3-3-3--3-3-3--3-3-3--3--|
|----------------------------------|-----------------------------|


  E  S S E  S S E  S S E  E     E  S S E  S S S S E  S S E     
-----------------------------|-------------------------------||
-----------------------------|----------------5-4----5-4----*||
--5--5-5-5--5-5-5--5-5-5--5--|--7--7-7-7--7-7-----7------7--*||
-----------------------------|-------------------------------||


   Interludio 1a                                                      
   Q             S S S S Q    S S S S    E  S S E  S S E  S S S S E   
-------------------------4----L-4-----|---------4-------------4------|
*--------------------4-5----------5-4-|-----4-5----5-4----4-5---5-4--|
*--7-------------L-7------------------|--7-------------7-------------|
--------------------------------------|------------------------------|


  Q    S S S S Q    S S S S    E  S S E  S S E  S S S S E     
---------------4----L-4-----|---------4-------------4-------||
-----------4-5----------5-4-|-----4-5----5-4----4-5---5-4--*||
--3----L-3------------------|--3-------------3-------------*||
----------------------------|-------------------------------||


   Interludio 1b                                                         
   >                                                              > >    
   E             S S E  S S E  S S E  S S    E  S S E  S S E  S S S E.   
------------------------------------------|-----------------------------|
*-----------------------------------------|-----------------------------|
*--7-------------7-7-7--7-7-7--7-7-7--7-7-|--7--7-7-7--7-7-7--7-7-7-5---|
------------------------------------------|-----------------------------|


  >                                                   > >      
  E  S S E  S S E  S S E  S S    E  S S E  S S E  S S S E.     
------------------------------|------------------------------||
------------------------------|-----------------------------*||
--3--3-3-3--3-3-3--3-3-3--3-3-|--3--3-3-3--3-3-3--3-3-3-5---*||
------------------------------|------------------------------||


                                Verso Riff 4                          
                          >                                           
  E  S S E  S S E  S S E  E     E            S S E  S S E  S S E  E   
-----------------------------|---------------------------------------|
-----------------------------|---------------------------------------|
--3--3-3-3--3-3-3--3-3-3--5--|--7------------7-7-7--7-7-7--7-7-7--7--|
-----------------------------|---------------------------------------|


  E  S S E  S S E  S S E  E     E  S S E  S S E  S S E  E   
-----------------------------|-----------------------------|
-----------------------------|-----------------------------|
--3--3-3-3--3-3-3--3-3-3--3--|--5--5-5-5--5-5-5--5-5-5--5--|
-----------------------------|-----------------------------|


  E  S S E  S S S S E  S S S S    E  S S E  S S E  S S E  E   
-------------------------------|-----------------------------|
----------------5-4----5-4-----|-----------------------------|
--7--7-7-7--7-7-----7------7-5-|--7--7-7-7--7-7-7--7-7-7--7--|
-------------------------------|-----------------------------|


  E  S S E  S S E  S S E  E     E  S S E  S S E  S S E  E   
-----------------------------|-----------------------------|
-----------------------------|-----------------------------|
--3--3-3-3--3-3-3--3-3-3--3--|--5--5-5-5--5-5-5--5-5-5--5--|
-----------------------------|-----------------------------|


  E  S S E  S S S S E  S S S S    E  S S E  S S E  S S E  E   
-------------------------------|-----------------------------|
----------------5-4----5-4-----|-----------------------------|
--7--7-7-7--7-7-----7------7-5-|--7--7-7-7--7-7-7--7-7-7--7--|
-------------------------------|-----------------------------|


  E  S S E  S S E  S S E  E     E  S S E  S S E  S S E  E   
-----------------------------|-----------------------------|
-----------------------------|-----------------------------|
--3--3-3-3--3-3-3--3-3-3--3--|--5--5-5-5--5-5-5--5-5-5--5--|
-----------------------------|-----------------------------|


  E  S S E  S S S S E  S S S S    E  S S E  S S E  S S E  E   
-------------------------------|-----------------------------|
----------------5-4----5-4-----|-----------------------------|
--7--7-7-7--7-7-----7------7-5-|--7--7-7-7--7-7-7--7-7-7--7--|
-------------------------------|-----------------------------|


  E  S S E  S S E  S S E  E     E  S S E  S S E  S S E  E   
-----------------------------|-----------------------------|
-----------------------------|-----------------------------|
--3--3-3-3--3-3-3--3-3-3--3--|--5--5-5-5--5-5-5--5-5-5--5--|
-----------------------------|-----------------------------|


                                  Interludio 2                           
                                  >                                      
  E  S S E  S S S S E  S S S S    E            S S E  S S E  S S E  S S  
-------------------------------|----------------------------------------|
----------------5-4----5-4-----|----------------------------------------|
--7--7-7-7--7-7-----7------7-5-|--7------------7-7-7--7-7-7--7-7-7--7-7-|
-------------------------------|----------------------------------------|


                       > >      >                            
  E  S S E  S S E  S S S E.     E  S S E  S S E  S S E  S S  
-----------------------------|------------------------------|
-----------------------------|------------------------------|
--7--7-7-7--7-7-7--7-7-7-5---|--3--3-3-3--3-3-3--3-3-3--3-3-|
-----------------------------|------------------------------|


                       > >      >                            
  E  S S E  S S E  S S S E.     E  S S E  S S E  S S E  S S  
-----------------------------|------------------------------|
-----------------------------|------------------------------|
--3--3-3-3--3-3-3--3-3-3-5---|--7--7-7-7--7-7-7--7-7-7--7-7-|
-----------------------------|------------------------------|


                       > >      >                            
  E  S S E  S S E  S S S E.     E  S S E  S S E  S S E  S S  
-----------------------------|------------------------------|
-----------------------------|------------------------------|
--7--7-7-7--7-7-7--7-7-7-5---|--3--3-3-3--3-3-3--3-3-3--3-3-|
-----------------------------|------------------------------|


                                Interludio 3                            
                          >                                             
  E  S S E  S S E  S S E  E     W                   H.           E  E   
-----------------------------|--9----------------|--L------------L-----|
-----------------------------|--9----------------|--L------------L-----|
--3--3-3-3--3-3-3--3-3-3--5--|--7----------------|--L------------L-----|
-----------------------------|-------------------|------------------7--|


  W                   H.           E  E     W                 
--9----------------|--L------------L-----|--5----------------|
--9----------------|--L------------L-----|--5----------------|
--7----------------|--L------------L-----|--3----------------|
-------------------|------------------3--|-------------------|


  H.           E  E     W                   W                 
--L------------L-----|--9----------------|--L----------------|
--L------------L-----|--9----------------|--L----------------|
--L------------L-----|--7----------------|--L----------------|
------------------7--|-------------------|-------------------|


    Puente                                                                 
    S      S S S S S S S S S S S E  E     S S S S S S S S S S S S E  E     
|------------------4-------------------|------------4--------------------||
|*---------4-5-4-5---5-4-5-4-----------|----4-5-4-5---5-4-5-4-----------*||
|*--7------------------------7-5-3--5--|--7-------------------7-5-3--5--*||
|--------------------------------------|---------------------------------||


  Riff C                                                             
  S      S S E  S E  S S S S S S S S    S S S E  S E  S S E  S S E   
-------------------------------------|------------------------------|
-------------------------------------|----------------5-4-----------|
--7------7-7-7--7-7--7-7-7-7-7-7-7-7-|--7-7-7-7--7-7------5--3-2----|
-------------------------------------|---------------------------3--|


  S S S E  S E  S S S S S S S S    S S S E  S E  S S E  S S E   
--------------------------------|------------------------------|
--------------------------------|----------------5-4-----------|
--5-5-5-5--5-5--5-5-5-5-5-5-5-5-|--5-5-5-5--5-5------5--3-2----|
--------------------------------|---------------------------3--|


  S S S E  S E  S S S S S S S S    S S S E  S E  S S E  S S E   
--------------------------------|------------------------------|
--------------------------------|----------------5-4-----------|
--7-7-7-7--7-7--7-7-7-7-7-7-7-7-|--7-7-7-7--7-7------5--3-2----|
--------------------------------|---------------------------3--|


  Solo 1 Dave Murray                              
  S                  S S E  S E  S S S S S S S S  
-------------------------------------------------|
-------------------------------------------------|
--5------------------5-5-5--5-5--5-5-5-5-5-5-5-5-|
-------------------------------------------------|


  S S S E  S E  S S E  S S E     S S S E  S E  S S S S S S S S  
------------------------------|--------------------------------|
----------------5-4-----------|--------------------------------|
--5-5-5-5--5-5------5--3-2----|--7-7-7-7--7-7--7-7-7-7-7-7-7-7-|
---------------------------3--|--------------------------------|


  S S S E  S E  S S E  S S E     S S S E  S E  S S S S S S S S  
------------------------------|--------------------------------|
----------------5-4-----------|--------------------------------|
--7-7-7-7--7-7------5--3-2----|--5-5-5-5--5-5--5-5-5-5-5-5-5-5-|
---------------------------3--|--------------------------------|


  S S S E  S E  S S E  S S E     S S S E  S E  S S S S S S S S  
------------------------------|--------------------------------|
----------------5-4-----------|--------------------------------|
--5-5-5-5--5-5------5--3-2----|--7-7-7-7--7-7--7-7-7-7-7-7-7-7-|
---------------------------3--|--------------------------------|


  S S S E  S E  S S E  S S E     S S S E  S E  S S S S S S S S  
------------------------------|--------------------------------|
----------------5-4-----------|--------------------------------|
--7-7-7-7--7-7------5--3-2----|--5-5-5-5--5-5--5-5-5-5-5-5-5-5-|
---------------------------3--|--------------------------------|


  S S S E  S E  S S E  S S E   
------------------------------|
----------------5-4-----------|
--5-5-5-5--5-5------5--3-2----|
---------------------------3--|


  Solo 2 Adrian Smith                              
  S                   S S E  S E  S S S S S S S S  
--------------------------------------------------|
--------------------------------------------------|
--7-------------------7-7-7--7-7--7-7-7-7-7-7-7-7-|
--------------------------------------------------|


  S S S E  S E  S S E  S S E     S S S E  S E  S S S S S S S S  
------------------------------|--------------------------------|
----------------5-4-----------|--------------------------------|
--7-7-7-7--7-7------5--3-2----|--5-5-5-5--5-5--5-5-5-5-5-5-5-5-|
---------------------------3--|--------------------------------|


  S S S E  S E  S S E  S S E     S S S E  S E  S S S S S S S S  
------------------------------|--------------------------------|
----------------5-4-----------|--------------------------------|
--5-5-5-5--5-5------5--3-2----|--7-7-7-7--7-7--7-7-7-7-7-7-7-7-|
---------------------------3--|--------------------------------|


  S S S E  S E  S S E  S S E     S S S E  S E  S S S S S S S S  
------------------------------|--------------------------------|
----------------5-4-----------|--------------------------------|
--7-7-7-7--7-7------5--3-2----|--5-5-5-5--5-5--5-5-5-5-5-5-5-5-|
---------------------------3--|--------------------------------|


                                 Riff D                            
  S S S E  S E  S S E  S S E     S      S S E  S E  S S E  S S E   
------------------------------|-----------------------------------|
----------------5-4-----------|-----------------------------------|
--5-5-5-5--5-5------5--3-2----|--7------7-7-7--7-7--7-7-7--7-7-7--|
---------------------------3--|-----------------------------------|


  S S S E  S E  S S E  S S S S    E  S E.  S E.  S E.  S S  
-------------------------------|---------------------------|
-----------------------------5-|--L----------5-------------|
--7-7-7-7--7-7--7-7-7--7-7-7---|-----7-5---7-----7-5-----7-|
-------------------------------|-----------------------7---|


  S S E  S E  S S S S E  E.     S S E  S S E  S S S E  E  S  
-----------------------------|------------------------------|
-----------------------------|----------------------------5-|
--L-7-7--7-7--7-7-7-7-7--7---|--7-7-7--7-7-7--7-7-7-7--7----|
-----------------------------|------------------------------|


  E  S E.  S E.  S E.  S S    S S E  S E  S S S S E  E.   
---------------------------|-----------------------------|
--L----------5-------------|-----------------------------|
-----7-5---7-----7-5-----7-|--L-7-7--7-7--7-7-7-7-7--7---|
-----------------------7---|-----------------------------|


  S S E  S S E  S S S E  E  S    E  S E.  S E.  S E.  S S  
------------------------------|---------------------------|
----------------------------5-|--L----------5-------------|
--7-7-7--7-7-7--7-7-7-7--7----|-----7-5---7-----7-5-----7-|
------------------------------|-----------------------7---|


  S S E  S E  S S S S E  E.     S S S S S S S S S S S S E  E   
-----------------------------|--------------------------------|
-----------------------------|--------------------------------|
--L-7-7--7-7--7-7-7-7-7--7---|--7-7-7-7-7-7-7-7-7-7-7-7-7--7--|
-----------------------------|--------------------------------|


    Riff E                                                            
    E      S S S S S S E  S S S S E     E  S S S S S S E  S S S S E   
|------------------------------------|-------------------------------|
|*-----------------------------------|-------------------------------|
|*--7------7-7-7-7-7-7-7--7-7-7-7-7--|--3--3-3-3-3-3-3-3--3-3-3-3-3--|
|------------------------------------|-------------------------------|


  E  S S S S S S E  S S S S E     E  S S S S E  S S E  S S E     
-------------------------------|-------------------------------||
-------------------------------|----------------5-4----5-4----*||
--5--5-5-5-5-5-5-5--5-5-5-5-5--|--7--7-7-7-7-7------7------7--*||
-------------------------------|-------------------------------||


   Riff F                                                            
   E      S S S S S S E  S S S S E     E  S S S S S S E  S S S S E   
------------------------------------|-------------------------------|
*-----------------------------------|-------------------------------|
*--7------7-7-7-7-7-7-7--7-7-7-7-7--|--3--3-3-3-3-3-3-3--3-3-3-3-3--|
------------------------------------|-------------------------------|


  E  S S S S S S E  S S S S E     E.  E.  E.  S S S S S S S    
-------------------------------|-----------------------------||
-------------------------------|--------------------5-4-----*||
--5--5-5-5-5-5-5-5--5-5-5-5-5--|--7---2---3---2-3-2-----7-5-*||
-------------------------------|-----------------------------||


  Coro                                                            
  E    S E  S E  S S S S S S S S    E  S E  S E  S S S S S S S S  
---------------------------------|-------------------------------|
---------------------------------|-------------------------------|
--7----7-7--7-7--7-7-7-7-7-7-7-7-|--3--3-3--3-3--3-3-3-3-3-3-3-3-|
---------------------------------|-------------------------------|


  E  S E  S E  S S S S S S S S    E  S E  S E  S S E  S S E   
-------------------------------|-----------------------------|
-------------------------------|---------------5-4----5-4----|
--5--5-5--5-5--5-5-5-5-5-5-5-5-|--7--7-7--7-7------7------7--|
-------------------------------|-----------------------------|


  E  S E  S E  S S S S S S S S    E  S E  S E  S S S S S S S S  
-------------------------------|-------------------------------|
-------------------------------|-------------------------------|
--7--7-7--7-7--7-7-7-7-7-7-7-7-|--3--3-3--3-3--3-3-3-3-3-3-3-3-|
-------------------------------|-------------------------------|


                                Interludio 4                            
  E  S E  S E  S S S S E  E     W                   H.           E  E   
-----------------------------|--9----------------|--L------------L-----|
-----------------------------|--9----------------|--L------------L-----|
--5--5-5--5-5--5-5-5-5-5-----|--7----------------|--L------------L-----|
--------------------------7--|-------------------|------------------5--|


  W                   H.           E  E     W                 
--7----------------|--L------------L-----|--5----------------|
--7----------------|--L------------L-----|--5----------------|
--5----------------|--L------------L-----|--3----------------|
-------------------|------------------3--|-------------------|


  H.           E  E     W                   H.           E  E   
--L------------L-----|--7----------------|--L------------L-----|
--L------------L-----|--7----------------|--L------------L-----|
--L------------L-----|--5----------------|--L------------L-----|
------------------5--|-------------------|------------------7--|


  Outro                                                                  
  H        H           Q    E.  E.  E  E  E     E  E  E  E  E  E  E  E   
--9-----------------|------------------------|--------------------------|
--9-----------------|------------------------|--------------------------|
--7--------7--------|--7----7---7---7--7--7--|--7--7--7--7--7--7--7--7--|
--------------------|------------------------|--------------------------|


  E  E  E  E  E  E  E  E     E  E  E  E  E  E  E  E   
--------------------------|--------------------------|
--------------------------|--------------------------|
--7--7--7--7--7--7--7--7--|--7--7--7--7--7--7--7--7--|
--------------------------|--------------------------|


  E  E  E  E  E  E  E  E     E  E  E  E  E  E  E  E   
--------------------------|--------------------------|
--------------------------|--------------------------|
--7--7--7--7--7--7--7--7--|--7--7--7--7--7--7--7--7--|
--------------------------|--------------------------|


  E  E  E  E  E  E  E  E     E  E  E  E  E  E  E  E     Q    Q    Q    Q     
--------------------------|--------------------------|----------------------|
--------------------------|--------------------------|----------------------|
--7--7--7--7--7--7--7--7--|--7--7--7--7--7--7--7--7--|--7----7----7----7----|
--------------------------|--------------------------|----------------------|


  W                   W                   S S S S Q    S S S S Q       Q       
-------------------|-------------------|----------------------------|--------||
-------------------|-------------------|----------------------------|--------||
--L----------------|--L----------------|--7-7-7-7-7----7-7-7-7-7----|--L\----||
-------------------|-------------------|----------------------------|--------||




Duration Legend
---------------
W - whole
H - half
Q - quarter
E - 8th
S - 16th
T - 32nd
X - 64th
. - note dotted
|-n-|  - n-tuplets


Tablature Legend
----------------
L - tied note
x - dead note
g - grace note
(n) - ghost note
> - accentuded note
NH - natural harmonic
AH - artificial harmonic
TH - tapped harmonic
SH - semi harmonic
PH - pitch harmonic
h - hammer on
p - pull off
b - bend
br - bendRelease
pb - preBend
pbr - preBendRelease
brb - bendReleaseBend
\n/ - tremolo bar dip
\n - tremolo bar dive
-/n - tremolo bar Release up
/n\ - tremolo bar inverted dip
/n - tremolo bar return
-\n - tremolo bar Release down
S - shift slide
s - legato slide
/ -  slide into from below or out of upwards
\ -  slide into from above or out of downwards
~ - vibrato
W - wide vibrato
tr - trill
TP - tremolo picking
T - tapping
S - slap
P - pop
< - fade in
^ - brush up
v - brush down
Suggest correction
Creating personal tab
Creating personal tab
You can edit any tab online and save it as your Personal.

You can edit, replace or remove any tab part or add personal notes – all changes will be seen only by you.

Personal tabs can be accessed anytime from any device, even offline.
Learn more »
comments
print report bad tab
guest
You may want to rate the tab now too:
select rating
Wanna post a correction for this tab? Suggest correction