Oops, an error
Loading. Please wait.
We have an official Hallowed Be Thy Name tab made by UG professional guitarists. Check out the tab »
×
2,020 views 33 this week
no commentswrite comment
1 2 3 4 5
x 4
add to favorites
×
Save as Personal and add changes to this tab that will be seen only by you. Learn more ›
×
You can save this tab as Personal to edit and correct it or add notes. All changes will be seen only by you. Learn more »
launch autoscroll
font size
0
reset
how to read this tab
guitar tuner
backing track
0:00
0:00
edit
Autoscroll
slow
fast
+/-
esc
set tempo
stop
Author
Difficulty
                             Hallowed Be Thy Name   
                            

                                  Iron Maiden

Instruments:
- G #1
- G #2
- G #3
- Voice Melody


Guitar #1:

Dave Murray

          Intro                                                        
     S    E      E   E  E  S S E  E  E     E   E   E  E  S S E  E  E   
E||----|--------------------------------|-----------------------------|
B||----|--------12--10--8--7-8-7--5--7--|-----12--10--8--7-8-7--5--4--|
G||----|--------------------------------|-----------------------------|
D||----|--------------------------------|-----------------------------|
A||----|--------10---9--7--5-7-5--3--5--|-----10---9--7--5-7-5--3--2--|
E||----|--------------------------------|-----------------------------|


                                Verso Riff 1                          
  E   E   E  E  S S E  E  E     E             E   E  E  S S E  E  E   
-----------------------------|---------------------------------------|
-----12--10--8--7-8-7--5--7--|---------------12--10--8--7-8-7--5--4--|
-----------------------------|---------------------------------------|
-----------------------------|---------------------------------------|
-----10---9--7--5-7-5--3--5--|---------------10---9--7--5-7-5--3--2--|
-----------------------------|---------------------------------------|


  E   E   E  E  S S E  E  E     E   E   E  E  S S E  E  E   
-----------------------------|-----------------------------|
-----12--10--8--7-8-7--5--7--|-----12--10--8--7-8-7--5--4--|
-----------------------------|-----------------------------|
-----------------------------|-----------------------------|
-----10---9--7--5-7-5--3--5--|-----10---9--7--5-7-5--3--2--|
-----------------------------|-----------------------------|


  E   E   E  E  S S E  E  E     E   E   E  E  S S E  E  E   
-----------------------------|-----------------------------|
-----12--10--8--7-8-7--5--7--|-----12--10--8--7-8-7--5--4--|
-----------------------------|-----------------------------|
-----------------------------|-----------------------------|
-----10---9--7--5-7-5--3--5--|-----10---9--7--5-7-5--3--2--|
-----------------------------|-----------------------------|


  E   E   E  E  S S E  E  E     E   E   E  E  S S E  E  E   
-----------------------------|-----------------------------|
-----12--10--8--7-8-7--5--7--|-----12--10--8--7-8-7--5--4--|
-----------------------------|-----------------------------|
-----------------------------|-----------------------------|
-----10---9--7--5-7-5--3--5--|-----10---9--7--5-7-5--3--2--|
-----------------------------|-----------------------------|


  E   E   E  E  S S E  E  E     E   E   E  E  S S E  E  E   
-----------------------------|-----------------------------|
-----12--10--8--7-8-7--5--7--|-----12--10--8--7-8-7--5--4--|
-----------------------------|-----------------------------|
-----------------------------|-----------------------------|
-----10---9--7--5-7-5--3--5--|-----10---9--7--5-7-5--3--2--|
-----------------------------|-----------------------------|


  E   E   E  E  S S E  E  E     E   E   E  E  S S E  E  E   
-----------------------------|-----------------------------|
-----12--10--8--7-8-7--5--7--|-----12--10--8--7-8-7--5--4--|
-----------------------------|-----------------------------|
-----------------------------|-----------------------------|
-----10---9--7--5-7-5--3--5--|-----10---9--7--5-7-5--3--2--|
-----------------------------|-----------------------------|


  E   E   E  E  S S E  E  E     E   E   E  E  S S E  E  E   
-----------------------------|-----------------------------|
-----12--10--8--7-8-7--5--4--|-----12--10--8--7-8-7--5--4--|
-----------------------------|-----------------------------|
-----------------------------|-----------------------------|
-----10---9--7--5-7-5--3--2--|-----10---9--7--5-7-5--3--2--|
-----------------------------|-----------------------------|


  E   E   E  E  S S E  E  E     E   E   E  E  S S E  E  E   
-----------------------------|-----------------------------|
-----12--10--8--7-8-7--5--7--|-----12--10--8--7-8-7--5--4--|
-----------------------------|-----------------------------|
-----------------------------|-----------------------------|
-----10---9--7--5-7-5--3--5--|-----10---9--7--5-7-5--3--2--|
-----------------------------|-----------------------------|


  E   E   E  E  S S E  E  E     E   E   E  E  S S E  E  E   
-----------------------------|-----------------------------|
-----12--10--8--7-8-7--5--4--|-----12--10--8--7-8-7--5--4--|
-----------------------------|-----------------------------|
-----------------------------|-----------------------------|
-----10---9--7--5-7-5--3--2--|-----10---9--7--5-7-5--3--2--|
-----------------------------|-----------------------------|


  Riff A                                    
  E       E     E   E   S   S   E  E   E    
-------------------------------------------|
-------------------------------------------|
---------14br--14--12--11h-12p-11--9--11~--|
-------------------------------------------|
-------------------------------------------|
-------------------------------------------|


   E   E     E   E   S   S   E  E  E      E   E     E   E   S   S   E  E   E    
---------------------------------------|---------------------------------------|
---------------------------------------|---------------------------------------|
---L--14br--14--12--11h-12p-11--9--8~--|--L--14br--14--12--11h-12p-11--9--11~--|
---------------------------------------|---------------------------------------|
---------------------------------------|---------------------------------------|
---------------------------------------|---------------------------------------|


      Trino.... Para Tomar La P                                        
      tr                                                               
      W                          E   E     E   E   S   S   E  E   E    
------------------------------|---------------------------------------|
------------------------------|---------------------------------------|
--14g16(14)-------------------|-----14br--14--12--11h-12p-11--9--11~--|
------------------------------|---------------------------------------|
------------------------------|---------------------------------------|
------------------------------|---------------------------------------|


   E   E     E   E   S   S   E  E  E      E      E.      E.      Q.      S  S  
---------------------------------------|--------------------------------------|
---------------------------------------|--------------------------------12-15-|
---L--14br--14--12--11h-12p-11--9--8~--|--L--14g16---14g16---14g16------------|
---------------------------------------|--------------------------------------|
---------------------------------------|--------------------------------------|
---------------------------------------|--------------------------------------|


   E     S  S  E     S  S  E     S  S  Q       
----------------------------------------------|
--15br--12-15-15br--12-15-15br--12-15-15b~----|
----------------------------------------------|
----------------------------------------------|
----------------------------------------------|
----------------------------------------------|


    Riff B                                                               
    S      S S S S S S S E  S S S S E     S S S S S S S S E  S S S S E   
|--------------------------------------|--------------------------------|
|--------------------------------------|--------------------------------|
|*-----------------------4-------------|------------------4-------------|
|*---------4-5-4-5-7-5-4----5-4-5-4----|------4---4-5-4-5----5-4-5-4----|
|---7-------------------------------7--|--L-7---7--------------------7--|
|--------------------------------------|--------------------------------|


  S S S S S S S S E  S S S S E     S S S S S S S S E  S S S S E     
--------------------------------|---------------------------------||
--------------------------------|---------------------------------||
------------------4-------------|------------------4-------------*||
----4-5-4-5-7-5-4----5-4-5-4----|------4---4-5-4-5----5-4-5-4----*||
--7--------------------------7--|--L-7---7--------------------7---||
--------------------------------|---------------------------------||


  Verso Riff 2                                                              
  E            H.           E     E  H.           E     E  H.           E   
-------------------------------|---------------------|---------------------|
-------------------------------|---------------------|---------------------|
-------------------------------|---------------------|---------------------|
--9----------------------------|--5------------------|--7------------------|
--7-------------------------5--|--3---------------7--|--5---------------9--|
----------------------------3--|------------------5--|------------------7--|


  E.  E.  E.  S S S S S S S    E  H.           E     E  H.           E   
----------------------------|---------------------|---------------------|
----------------------------|---------------------|---------------------|
----------------------------|---------------------|---------------------|
--9---4---5---------5-4-2---|--9------------------|--5------------------|
--7---2---3---2-3-2-------5-|--7---------------5--|--3---------------7--|
----------------------------|------------------3--|------------------5--|


  E  H.           E     E.  E.  E.  S S S S S S S  
---------------------|----------------------------|
---------------------|----------------------------|
---------------------|----------------------------|
--7------------------|--9---4---5---------5-4-2---|
--5---------------9--|--7---2---3---2-3-2-------5-|
------------------7--|----------------------------|


  Verso Riff 3                                
               PM PM    PM PM    PM PM        
  E            S  S  E  S  S  E  S  S  E  E   
---------------------------------------------|
---------------------------------------------|
---------------------------------------------|
--9------------------9--------9--------9--9--|
--7------------7--7--7--7--7--7--7--7--7--7--|
---------------------------------------------|


     PM PM    PM PM    PM PM             PM PM    PM PM    PM PM        
  E  S  S  E  S  S  E  S  S  E  E     E  S  S  E  S  S  E  S  S  E  E   
-----------------------------------|-----------------------------------|
-----------------------------------|-----------------------------------|
-----------------------------------|-----------------------------------|
--5--------5--------5--------5--5--|--7--------7--------7--------7--7--|
--3--3--3--3--3--3--3--3--3--3--3--|--5--5--5--5--5--5--5--5--5--5--5--|
-----------------------------------|-----------------------------------|


                                  PM PM    PM PM    PM PM        
  E.  E.  E.  S S S S S S S    E  S  S  E  S  S  E  S  S  E  E   
----------------------------|-----------------------------------|
----------------------------|-----------------------------------|
----------------------------|-----------------------------------|
--9---4---5---------5-4-2---|--9--------9--------9--------9--9--|
--7---2---3---2-3-2-------5-|--7--7--7--7--7--7--7--7--7--7--7--|
----------------------------|-----------------------------------|


     PM PM    PM PM    PM PM             PM PM    PM PM    PM PM        
  E  S  S  E  S  S  E  S  S  E  E     E  S  S  E  S  S  E  S  S  E  E   
-----------------------------------|-----------------------------------|
-----------------------------------|-----------------------------------|
-----------------------------------|-----------------------------------|
--5--------5--------5--------5--5--|--7--------7--------7--------7--7--|
--3--3--3--3--3--3--3--3--3--3--3--|--5--5--5--5--5--5--5--5--5--5--5--|
-----------------------------------|-----------------------------------|


                                 Riff B                              
  E.  E.  E.  S S S S S S S      S      S S S S S S S E  S S S S E   
----------------------------||--------------------------------------|
----------------------------||--------------------------------------|
----------------------------||*-----------------------4-------------|
--9---4---5---------5-4-2---||*---------4-5-4-5-7-5-4----5-4-5-4----|
--7---2---3---2-3-2-------5-||---7-------------------------------7--|
----------------------------||--------------------------------------|


  S S S S S S S S E  S S S S E     S S S S S S S S E  S S S S E   
--------------------------------|--------------------------------|
--------------------------------|--------------------------------|
------------------4-------------|------------------4-------------|
------4---4-5-4-5----5-4-5-4----|----4-5-4-5-7-5-4----5-4-5-4----|
--L-7---7--------------------7--|--7--------------------------7--|
--------------------------------|--------------------------------|


                                      Interludio 1a                        
  S S S S S S S S E  S S S S E        Q             S S S S Q     S S S S  
---------------------------------||---------------------------------------|
---------------------------------||---------------------------------------|
------------------4-------------*||*------------------------4~----L-4-----|
------4---4-5-4-5----5-4-5-4----*||*--------------------4-5-----------5-4-|
--L-7---7--------------------7---||---7~------------L-7-------------------|
---------------------------------||---------------------------------------|


  E  S S E  S S E  S S S S E     Q     S S S S Q     S S S S  
------------------------------|------------------------------|
------------------------------|------------------------------|
---------4-------------4------|----------------4~----L-4-----|
-----4-5----5-4----4-5---5-4--|------------4-5-----------5-4-|
--7-------------7-------------|--3~----L-3-------------------|
------------------------------|------------------------------|


                                    Interludio 1b                  
  E  S S E  S S E  S S S S E        Q.            S S Q.      S S  
-------------------------------||---------------------------------|
-------------------------------||---------------------------------|
---------4-------------4------*||*--------------------4~----------|
-----4-5----5-4----4-5---5-4--*||*----------------4-5---------5-4-|
--3-------------3--------------||---7~----------------------------|
-------------------------------||---------------------------------|


  E  S S E  S S E  S S S S E     Q.      S S Q.      S S  
------------------------------|--------------------------|
------------------------------|--------------------------|
---------4-------------4------|--------------4~----------|
-----4-5----5-4----4-5---5-4--|----------4-5---------5-4-|
--7-------------7-------------|--3~----------------------|
------------------------------|--------------------------|


  E  S S E  S S E  S S S S E       E  S S E  S S E  S S S S E   
-------------------------------||------------------------------|
-------------------------------||------------------------------|
---------4-------------4------*||---------4-------------4------|
-----4-5----5-4----4-5---5-4--*||-----4-5----5-4----4-5---5-4--|
--3-------------3--------------||--3-------------3-------------|
-------------------------------||------------------------------|


  Verso Riff 4                                
               PM PM    PM PM    PM PM        
  E            S  S  E  S  S  E  S  S  E  E   
---------------------------------------------|
---------------------------------------------|
---------------------------------------------|
--9------------------9--------9--------9--9--|
--7------------7--7--7--7--7--7--7--7--7--7--|
---------------------------------------------|


     PM PM    PM PM    PM PM             PM PM    PM PM    PM PM        
  E  S  S  E  S  S  E  S  S  E  E     E  S  S  E  S  S  E  S  S  E  E   
-----------------------------------|-----------------------------------|
-----------------------------------|-----------------------------------|
-----------------------------------|-----------------------------------|
--5--------5--------5--------5--5--|--7--------7--------7--------7--7--|
--3--3--3--3--3--3--3--3--3--3--3--|--5--5--5--5--5--5--5--5--5--5--5--|
-----------------------------------|-----------------------------------|


     PM PM                            PM PM    PM PM    PM PM        
  E  S  S  Q    S  S E  S  S E     E  S  S  E  S  S  E  S  S  E  E   
--------------------------------|-----------------------------------|
--------------------------------|-----------------------------------|
--------------------------------|-----------------------------------|
--9--------9----5p-4----5p-4----|--9--------9--------9--------9--9--|
--7--7--7--7---------7-------7--|--7--7--7--7--7--7--7--7--7--7--7--|
--------------------------------|-----------------------------------|


     PM PM    PM PM    PM PM             PM PM    PM PM    PM PM        
  E  S  S  E  S  S  E  S  S  E  E     E  S  S  E  S  S  E  S  S  E  E   
-----------------------------------|-----------------------------------|
-----------------------------------|-----------------------------------|
-----------------------------------|-----------------------------------|
--5--------5--------5--------5--5--|--7--------7--------7--------7--7--|
--3--3--3--3--3--3--3--3--3--3--3--|--5--5--5--5--5--5--5--5--5--5--5--|
-----------------------------------|-----------------------------------|


     PM PM                            PM PM    PM PM    PM PM        
  E  S  S  Q    S  S E  S  S E     E  S  S  E  S  S  E  S  S  E  E   
--------------------------------|-----------------------------------|
--------------------------------|-----------------------------------|
--------------------------------|-----------------------------------|
--9--------9----5p-4----5p-4----|--9--------9--------9--------9--9--|
--7--7--7--7---------7-------7--|--7--7--7--7--7--7--7--7--7--7--7--|
--------------------------------|-----------------------------------|


     PM PM    PM PM    PM PM             PM PM    PM PM    PM PM        
  E  S  S  E  S  S  E  S  S  E  E     E  S  S  E  S  S  E  S  S  E  E   
-----------------------------------|-----------------------------------|
-----------------------------------|-----------------------------------|
-----------------------------------|-----------------------------------|
--5--------5--------5--------5--5--|--7--------7--------7--------7--7--|
--3--3--3--3--3--3--3--3--3--3--3--|--5--5--5--5--5--5--5--5--5--5--5--|
-----------------------------------|-----------------------------------|


     PM PM                            PM PM    PM PM    PM PM        
  E  S  S  Q    S  S E  S  S E     E  S  S  E  S  S  E  S  S  E  E   
--------------------------------|-----------------------------------|
--------------------------------|-----------------------------------|
--------------------------------|-----------------------------------|
--9--------9----5p-4----5p-4----|--9--------9--------9--------9--9--|
--7--7--7--7---------7-------7--|--7--7--7--7--7--7--7--7--7--7--7--|
--------------------------------|-----------------------------------|


     PM PM    PM PM    PM PM             PM PM    PM PM    PM PM        
  E  S  S  E  S  S  E  S  S  E  E     E  S  S  E  S  S  E  S  S  E  E   
-----------------------------------|-----------------------------------|
-----------------------------------|-----------------------------------|
-----------------------------------|-----------------------------------|
--5--------5--------5--------5--5--|--7--------7--------7--------7--7--|
--3--3--3--3--3--3--3--3--3--3--3--|--5--5--5--5--5--5--5--5--5--5--5--|
-----------------------------------|-----------------------------------|


                                   Interludio 2                  
     PM PM                                                       
  E  S  S  Q    S  S E  S  S E     Q.           S S Q.      S S  
--------------------------------|-------------------------------|
--------------------------------|-------------------------------|
--------------------------------|-------------------4~----------|
--9--------9----5p-4----5p-4----|---------------4-5---------5-4-|
--7--7--7--7---------7-------7--|--7~---------------------------|
--------------------------------|-------------------------------|


  E  S S E  S S E  S S S S E     Q.      S S Q.      S S  
------------------------------|--------------------------|
------------------------------|--------------------------|
---------4-------------4------|--------------4~----------|
-----4-5----5-4----4-5---5-4--|----------4-5---------5-4-|
--7-------------7-------------|--3~----------------------|
------------------------------|--------------------------|


  E  S S E  S S E  S S S S E     Q.      S S Q.      S S  
------------------------------|--------------------------|
------------------------------|--------------------------|
---------4-------------4------|--------------4~----------|
-----4-5----5-4----4-5---5-4--|----------4-5---------5-4-|
--3-------------3-------------|--7~----------------------|
------------------------------|--------------------------|


  E  S S E  S S E  S S S S E     Q.      S S Q.      S S  
------------------------------|--------------------------|
------------------------------|--------------------------|
---------4-------------4------|--------------4~----------|
-----4-5----5-4----4-5---5-4--|----------4-5---------5-4-|
--7-------------7-------------|--3~----------------------|
------------------------------|--------------------------|


                                 Interludio 3                             
  E  S S E  S S E  S S S S E     E             E   E   E  E   E   E   E   
------------------------------|------------------------------------------|
------------------------------|---------------12-------------12----------|
---------4-------------4------|--9----------------11--12--9------11--12--|
-----4-5----5-4----4-5---5-4--|------------------------------------------|
--3-------------3-------------|------------------------------------------|
------------------------------|------------------------------------------|


  E   E   E   E  E   E   E   E     E   E   E   E  E   E   E   E   
--------------------------------|--------------------------------|
-----12-------------12----------|-----12-------------12----------|
--9------11--12--9------11--12--|--9------11--12--9------11--12--|
--------------------------------|--------------------------------|
--------------------------------|--------------------------------|
--------------------------------|--------------------------------|


  E   E   E   E  E   E   E   E     E   E   E   E  E   E   E   E   
--------------------------------|--------------------------------|
-----12-------------12----------|-----12-------------12----------|
--9------11--12--9------11--12--|--9------11--12--9------11--12--|
--------------------------------|--------------------------------|
--------------------------------|--------------------------------|
--------------------------------|--------------------------------|


  E   E   E   E  E   E   E   E     E   E   E   E  E   E   E   E   
--------------------------------|--------------------------------|
-----12-------------12----------|-----12-------------12----------|
--9------11--12--9------11--12--|--9------11--12--9------11--12--|
--------------------------------|--------------------------------|
--------------------------------|--------------------------------|
--------------------------------|--------------------------------|


                                     Puente                              
  E   E   E   E  E   E   E   E       S      S S S S S S S S S S S E  E   
--------------------------------||--------------------------------------|
-----12-------------12----------||--------------------------------------|
--9------11--12--9------11--12--||*-----------------4-------------------|
--------------------------------||*---------4-5-4-5---5-4-5-4-----5--7--|
--------------------------------||---7------------------------7-5-3--5--|
--------------------------------||--------------------------------------|


                                     Riff C                           
  S S S S S S S S S S S S E  E       E      S E  S E  S E  S S S S S  
---------------------------------||----------------------------------|
---------------------------------||----------------------------------|
------------4-------------------*||----------------------------------|
----4-5-4-5---5-4-5-4-----5--7--*||--9------x-9--x-9--x-9--x-9-9-9-9-|
--7-------------------7-5-3--5---||--7------x-7--x-7--x-7--x-7-7-7-7-|
---------------------------------||----------------------------------|


  E  S E  S E  S  S E  S  S E     E  S E  S E  S E  S S S S S  
-------------------------------|------------------------------|
-------------------------------|------------------------------|
-------------------------------|------------------------------|
--9--x-9--x-9--5p-4------------|--7--x-7--x-7--x-7--x-7-7-7-7-|
--7--x-7--x-7-------5--3p-2----|--5--x-5--x-5--x-5--x-5-5-5-5-|
----------------------------3--|------------------------------|


  E  S E  S E  S  S E  S  S E     E  S E  S E  S E  S S S S S  
-------------------------------|------------------------------|
-------------------------------|------------------------------|
-------------------------------|------------------------------|
--7--x-7--x-7--5p-4------------|--9--x-9--x-9--x-9--x-9-9-9-9-|
--5--x-5--x-5-------5--3p-2----|--7--x-7--x-7--x-7--x-7-7-7-7-|
----------------------------3--|------------------------------|


                                  Solo 1 Dave Murray                          
  E  S E  S E  S  S E  S  S E     E                  S E  S E  S E  S E   E   
-------------------------------|---------------------------------------------|
-------------------------------|---------------------------------------------|
-------------------------------|-----------------------------------------11--|
--9--x-9--x-9--5p-4------------|--7------------------x-7--x-7--x-7--x-7------|
--7--x-7--x-7-------5--3p-2----|--5------------------x-5--x-5--x-5--x-5------|
----------------------------3--|---------------------------------------------|


   E.   E.   Q.       Q       Q.      E.    Q.      S  
---------------------------|--------------------------|
---------------------------|------------------------0-|
--12---11---12b-------L----|--------------------------|
---------------------------|--7b------7br---7~--------|
---------------------------|--------------------------|
---------------------------|--------------------------|


  |--3--| |--3--| |--3--| |--3--| |--3--| |--3--| |--3--| |--3--|  
  S  S  S S  S  S S  S  S S  S  S S  S  S S  S  S S  S  S S  S  S  
------------------------------------------------------------------|
--5p-3p-0-5p-3p-0-5p-3p-0-5p-3p-0-5p-3p-0-5p-3p-0-5p-3p-0-5p-3p-0-|
------------------------------------------------------------------|
------------------------------------------------------------------|
------------------------------------------------------------------|
------------------------------------------------------------------|


  |--3--| |--3--| |--3--| |--3--| |--3--| |--3--| |--3--| |--3--|  
  S  S  S S  S  S S  S  S S  S  S S  S  S S  S  S S  S  S S  S  S  
------------------------------------------------------------------|
--8p-5p-0-7p-5p-0-8p-5p-0-7p-5p-0-8p-5p-0-7p-5p-0-8p-5p-0-7p-5p-0-|
------------------------------------------------------------------|
------------------------------------------------------------------|
------------------------------------------------------------------|
------------------------------------------------------------------|


  |--3--| |--3--| |--3--|                            
  S  S  S S  S  S S  S  S S S S S  S S  S  S  S  S   
-------------------------------------8-10-12--------|
--8p-5p-0-7p-5p-0-8p-5p-0-8---8---10---------12-15b-|
----------------------------9---9-------------------|
----------------------------------------------------|
----------------------------------------------------|
----------------------------------------------------|


       |---3--|  |---3--|  |--3--|                                              
   E   S   S  S  S   S  S  S  S  S  T   T   T   T   T   T  S  T  T   T  T   T  T
------15p-12----12h-15----12----12----------------------------------------------
---L---------12--------12----15----15p-12h-15p-12h-15p-12-12-10p-8h-10p-8h-10p-8
--------------------------------------------------------------------------------
--------------------------------------------------------------------------------
--------------------------------------------------------------------------------
--------------------------------------------------------------------------------


                         W           
   S  S  S S S   S S   S Q.      E   
------------------------------------|
--------------------------------12--|
--12-------9------------------------|
-----12p-9---9h-12-9h-12-9----------|
------------------------------------|
------------------------------------|


            \1/  /1\  \1/  /1\  \1/  /1\                                
   Q        S    S    S    S    S    S   T.  T.  T.  T.  T.  T.  T.  T. 
--13br----(13)-(13)-(13)-(13)-(13)-(13)-10h-12p-10h-12p-10h-12p-10h-12-|
-----------------------------------------------------------------------|
-----------------------------------------------------------------------|
-----------------------------------------------------------------------|
-----------------------------------------------------------------------|
-----------------------------------------------------------------------|


   T.  T.  T.  T.  T.  T.  T.  T.  T.  T. H         T  
--10h-12p-10h-12p-10h-12p-10h-12p-10h-12-13b--------L-|
------------------------------------------------------|
------------------------------------------------------|
------------------------------------------------------|
------------------------------------------------------|
------------------------------------------------------|


  Solo 2 Adrian Smith                                                           
  E                   S E  S E  S E  S S S S S    E  S E  S E  S  S E  S  S E   
-----------------------------------------------|-------------------------------|
-----------------------------------------------|-------------------------------|
-----------------------------------------------|-------------------------------|
--9-------------------x-9--x-9--x-9--x-9-9-9-9-|--9--x-9--x-9--5p-4------------|
--7-------------------x-7--x-7--x-7--x-7-7-7-7-|--7--x-7--x-7-------5--3p-2----|
-----------------------------------------------|----------------------------3--|


  E  S E  S E  S E  S S S S S    E  S E  S E  S  S E  S  S E   
------------------------------|-------------------------------|
------------------------------|-------------------------------|
------------------------------|-------------------------------|
--7--x-7--x-7--x-7--x-7-7-7-7-|--7--x-7--x-7--5p-4------------|
--5--x-5--x-5--x-5--x-5-5-5-5-|--5--x-5--x-5-------5--3p-2----|
------------------------------|----------------------------3--|


  E  S E  S E  S E  S S S S S    E  S E  S E  S  S E  S  S E   
------------------------------|-------------------------------|
------------------------------|-------------------------------|
------------------------------|-------------------------------|
--9--x-9--x-9--x-9--x-9-9-9-9-|--9--x-9--x-9--5p-4------------|
--7--x-7--x-7--x-7--x-7-7-7-7-|--7--x-7--x-7-------5--3p-2----|
------------------------------|----------------------------3--|


  E  S E  S E  S E  S S S S S    E  S E  S E  S  S E  S  S E   
------------------------------|-------------------------------|
------------------------------|-------------------------------|
------------------------------|-------------------------------|
--7--x-7--x-7--x-7--x-7-7-7-7-|--7--x-7--x-7--5p-4------------|
--5--x-5--x-5--x-5--x-5-5-5-5-|--5--x-5--x-5-------5--3p-2----|
------------------------------|----------------------------3--|


  Riff D                                                          
  E      S E  S E  S E  S S S S S    E  S E  S E  S E  S S S S S  
----------------------------------|------------------------------|
----------------------------------|------------------------------|
----------------------------------|------------------------------|
--9------x-9--x-9--x-9--x-9-9-9-9-|--9--x-9--x-9--x-9--x-9-9---5-|
--7------x-7--x-7--x-7--x-7-7-7-7-|--7--x-7--x-7--x-7--x-7-7-7---|
----------------------------------|------------------------------|


  E  S E.  S E.  S E.  S S    S S E  S E  S E  S S. T E  S  
---------------------------|-------------------------------|
---------------------------|-------------------------------|
---------------------------|-------------------------------|
--L----------5-----------9-|--L-x-9--x-9--x-9--x-9----9----|
-----7-5---7-----7-5-----7-|--L-x-7--x-7--x-7--x-7----7----|
-----------------------7---|-------------------------------|


  S S E  S E  S E  S E  S S S    E  S E.  S E.  S E.  S S  
------------------------------|---------------------------|
------------------------------|---------------------------|
------------------------------|---------------------------|
------9--x-9--x-9--x-9------5-|--L----------5-----------9-|
--7-7-7--x-7--x-7--x-7--7-7---|-----7-5---7-----7-5-----7-|
------------------------------|-----------------------7---|


  S S E  S E  S E  S S. T E  S    S S E  S E  S E  S E   S  S S  
-------------------------------|--------------------------------|
-------------------------------|--------------------------------|
-------------------------------|--------------------------------|
--L-x-9--x-9--x-9--x-9----9----|------9--x-9--x-9--x-9--------9-|
--L-x-7--x-7--x-7--x-7----7----|--7-7-7--x-7--x-7--x-7--10-10---|
-------------------------------|--------------------------------|


  E   S E.   S E.   S E.   S S    S S E  S E  S E  S S. T E  S  
-------------------------------|-------------------------------|
-------------------------------|-------------------------------|
-------------------------------|-------------------------------|
--L------------9-------------9-|--L-x-9--x-9--x-9--x-9----9----|
-----10-9---10-----10-9------7-|--L-x-7--x-7--x-7--x-7----7----|
--------------------------10---|-------------------------------|


                                       Riff E                              
  S S S S S S S S S S S S E  S. T      S      S S S S S S S E  S S S S E   
----------------------------------||--------------------------------------|
----------------------------------||--------------------------------------|
----------------------------------||*-----------------------4-------------|
--9-9-9-9-9-9-9-9-9-9-9-9-9--9----||*---------4-5-4-5-7-5-4----5-4-5-4----|
--7-7-7-7-7-7-7-7-7-7-7-7-7--7----||---7-------------------------------7--|
----------------------------------||--------------------------------------|


  S S S S S S S S E  S S S S E     S S S S S S S S E  S S S S E   
--------------------------------|--------------------------------|
--------------------------------|--------------------------------|
------------------4-------------|------------------4-------------|
------4---4-5-4-5----5-4-5-4----|----4-5-4-5-7-5-4----5-4-5-4----|
--L-7---7--------------------7--|--7--------------------------7--|
--------------------------------|--------------------------------|


                                      Riff F                              
  S S S S S S S S E  S S S S E        S      S S S S S S S E  S S S S E   
---------------------------------||--------------------------------------|
---------------------------------||--------------------------------------|
------------------4-------------*||*-----------------------4-------------|
------4---4-5-4-5----5-4-5-4----*||*---------4-5-4-5-7-5-4----5-4-5-4----|
--L-7---7--------------------7---||---7-------------------------------7--|
---------------------------------||--------------------------------------|


  S S S S S S S S E  S S S S E     S S S S S S S S E  S S S S E   
--------------------------------|--------------------------------|
--------------------------------|--------------------------------|
------------------4-------------|------------------4-------------|
------4---4-5-4-5----5-4-5-4----|----4-5-4-5-7-5-4----5-4-5-4----|
--L-7---7--------------------7--|--7--------------------------7--|
--------------------------------|--------------------------------|


                                 Coro                     
  E.  E.  E.  S S S S S S S      E    S E  S E  H         
-----------------------------||--------------------------|
-----------------------------||--------------------------|
----------------------------*||--9----x-9--x-9--L--------|
--9---4---5---------5-4-2---*||--9----x-9--x-9--L--------|
--7---2---3---2-3-2-------5--||--7----x-7--x-7--L--------|
-----------------------------||--------------------------|


                                                     Usar Tremolo       
  E  S E  S E  H           E  S E  S E  H            W                  
------------------------|------------------------|---------------------|
------------------------|------------------------|---------------------|
--5--x-5--x-5--L--------|--7--x-7--x-7--L--------|--16~----------------|
--5--x-5--x-5--L--------|--7--x-7--x-7--L--------|--14~----------------|
--3--x-3--x-3--L--------|--5--x-5--x-5--L--------|---------------------|
------------------------|------------------------|---------------------|


  E  S E  S E  H           E  S E  S E  H           E  S E  S E  H         
------------------------|------------------------|------------------------|
------------------------|------------------------|------------------------|
--9--x-9--x-9--L--------|--5--x-5--x-5--L--------|--7--x-7--x-7--L--------|
--9--x-9--x-9--L--------|--5--x-5--x-5--L--------|--7--x-7--x-7--L--------|
--7--x-7--x-7--L--------|--3--x-3--x-3--L--------|--5--x-5--x-5--L--------|
------------------------|------------------------|------------------------|


  Interludio 4                                                              
  E             E   E   E  E   E   E   E     E   E   E   E  E   E   E   E   
------------------------------------------|--------------------------------|
---------------12-------------12----------|-----12-------------12----------|
--9----------------11--12--9------11--12--|--9------11--12--9------11--12--|
------------------------------------------|--------------------------------|
------------------------------------------|--------------------------------|
------------------------------------------|--------------------------------|


  E   E   E   E  E   E   E   E     E   E   E   E  E   E   E   E   
--------------------------------|--------------------------------|
-----12-------------12----------|-----12-------------12----------|
--9------11--12--9------11--12--|--9------11--12--9------11--12--|
--------------------------------|--------------------------------|
--------------------------------|--------------------------------|
--------------------------------|--------------------------------|


  E   E   E   E  E   E   E   E     E   E   E   E  E   E   E   E   
--------------------------------|--------------------------------|
-----12-------------12----------|-----12-------------12----------|
--9------11--12--9------11--12--|--9------11--12--9------11--12--|
--------------------------------|--------------------------------|
--------------------------------|--------------------------------|
--------------------------------|--------------------------------|


  E   E   E   E  E   E   E   E     E   E   E   E  E   E   E   E   
--------------------------------|--------------------------------|
-----12-------------12----------|-----12-------------12----------|
--9------11--12--9------11--12--|--9------11--12--9------11--12--|
--------------------------------|--------------------------------|
--------------------------------|--------------------------------|
--------------------------------|--------------------------------|


  Outro                                               
  H          H             Q     Q    E   E   E   E   
-----------------------|-----------------------------|
------------12~--------|-----------------12----------|
--9~-------------------|--11----12----9------11--12--|
-----------------------|-----------------------------|
-----------------------|-----------------------------|
-----------------------|-----------------------------|


  E   E   E   E  E   E   E   E     E   E   E   E  E   E   E   E   
--------------------------------|--------------------------------|
-----12-------------12----------|-----12-------------12----------|
--9------11--12--9------11--12--|--9------11--12--9------11--12--|
--------------------------------|--------------------------------|
--------------------------------|--------------------------------|
--------------------------------|--------------------------------|


  E   E   E   E  E   E   E   E     E   E   E   E  E   E   E   E   
--------------------------------|--------------------------------|
-----12-------------12----------|-----12-------------12----------|
--9------11--12--9------11--12--|--9------11--12--9------11--12--|
--------------------------------|--------------------------------|
--------------------------------|--------------------------------|
--------------------------------|--------------------------------|


  E   E   E   E  E   E   E   E     E   E   E   E  E   E   E   E   
--------------------------------|--------------------------------|
-----12-------------12----------|-----12-------------12----------|
--9------11--12--9------11--12--|--9------11--12--9------11--12--|
--------------------------------|--------------------------------|
--------------------------------|--------------------------------|
--------------------------------|--------------------------------|


                                                          tr        
  E   E   E   E  E   E   E   E     E   E   E   E  E   E   Q         
--------------------------------|----------------------------------|
-----12-------------12----------|-----12-------------12------------|
--9------11--12--9------11--12--|--9------11--12--9------11(12)----|
--------------------------------|----------------------------------|
--------------------------------|----------------------------------|
--------------------------------|----------------------------------|


   W                    W                    S S S S Q    S S S S Q     
--------------------|---------------------|----------------------------|
--------------------|---------------------|----------------------------|
---L----------------|--(9)----------------|----------------------------|
--------------------|---------------------|--9-9-9-9-9----9-9-9-9-9----|
--------------------|---------------------|--7-7-7-7-7----7-7-7-7-7----|
--------------------|---------------------|----------------------------|


  Q       
--------||
--------||
--------||
--L\----||
--L\----||
--------||





Guitar #2:
                             
Adrian Smith

          Intro                                                     
     S    W                   W                   W                 
E||----|-------------------|-------------------|-------------------|
B||----|-------------------|-------------------|-------------------|
G||----|-------------------|-------------------|-------------------|
D||----|-------------------|-------------------|-------------------|
A||----|-------------------|-------------------|-------------------|
E||----|-------------------|-------------------|-------------------|



                       Riff A                                     
           <                                                      
  H        H           E       E     E   E   S   S   E   E   E    
--------------------|--------------------------------------------|
--------------------|---------13br--13--12--10h-12p-10------10~--|
--------------------|-----------------------------------12-------|
-----------9--------|--------------------------------------------|
-----------7--------|--------------------------------------------|
--------------------|--------------------------------------------|


   E   E     E   E   S   S   E   E   E    
-----------------------------------------|
---L--13br--13--12--10h-12p-10-----------|
--------------------------------12--11~--|
-----------------------------------------|
-----------------------------------------|
-----------------------------------------|


   E   E     E   E   S   S   E   E   E    
-----------------------------------------|
------13br--13--12--10h-12p-10------10~--|
---L----------------------------12-------|
-----------------------------------------|
-----------------------------------------|
-----------------------------------------|


   E   E     E   E   S   S   E   E   E    
-----------------------------------------|
---L--13br--13--12--10h-12p-10-----------|
--------------------------------12--11~--|
-----------------------------------------|
-----------------------------------------|
-----------------------------------------|


   E   E     E   E   S   S   E   E   E    
-----------------------------------------|
------13br--13--12--10h-12p-10------10~--|
---L----------------------------12-------|
-----------------------------------------|
-----------------------------------------|
-----------------------------------------|


   E   E     E   E   S   S   E   E   E    
-----------------------------------------|
---L--13br--13--12--10h-12p-10-----------|
--------------------------------12--11~--|
-----------------------------------------|
-----------------------------------------|
-----------------------------------------|


   E   E     E   E   S   S   E   E   E    
-----------------------------------------|
------13br--13--12--10h-12p-10------10~--|
---L----------------------------12-------|
-----------------------------------------|
-----------------------------------------|
-----------------------------------------|


   E   E     E   E   S   S   E   E   E    
-----------------------------------------|
---L--13br--13--12--10h-12p-10-----------|
--------------------------------12--11~--|
-----------------------------------------|
-----------------------------------------|
-----------------------------------------|


    Riff B                                                               
    S      S S S S S S S E  S S S S E     S S S S S S S S E  S S S S E   
|--------------------------------------|--------------------------------|
|--------------------------------------|--------------------------------|
|*-----------------------4-------------|------------------4-------------|
|*---------4-5-4-5-7-5-4----5-4-5-4----|------4---4-5-4-5----5-4-5-4----|
|---7-------------------------------7--|--L-7---7--------------------7--|
|--------------------------------------|--------------------------------|


  S S S S S S S S E  S S S S E     S S S S S S S S E  S S S S E     
--------------------------------|---------------------------------||
--------------------------------|---------------------------------||
------------------4-------------|------------------4-------------*||
----4-5-4-5-7-5-4----5-4-5-4----|------4---4-5-4-5----5-4-5-4----*||
--7--------------------------7--|--L-7---7--------------------7---||
--------------------------------|---------------------------------||


  Verso Riff 2                                                              
  E            H.           E     E  H.           E     E  H.           E   
-------------------------------|---------------------|---------------------|
-------------------------------|---------------------|---------------------|
-------------------------------|---------------------|---------------------|
--9----------------------------|--5------------------|--7------------------|
--7-------------------------5--|--3---------------7--|--5---------------9--|
----------------------------3--|------------------5--|------------------7--|


  E.  E.  E.  S S S S S S S    E  H.           E     E  H.           E   
----------------------------|---------------------|---------------------|
----------------------------|---------------------|---------------------|
----------------------------|---------------------|---------------------|
--9---4---5---------5-4-2---|--9------------------|--5------------------|
--7---2---3---2-3-2-------5-|--7---------------5--|--3---------------7--|
----------------------------|------------------3--|------------------5--|


  E  H.           E     E.  E.  E.  S S S S S S S  
---------------------|----------------------------|
---------------------|----------------------------|
---------------------|----------------------------|
--7------------------|--9---4---5---------5-4-2---|
--5---------------9--|--7---2---3---2-3-2-------5-|
------------------7--|----------------------------|


  Verso Riff 3                                
               PM PM    PM PM    PM PM        
  E            S  S  E  S  S  E  S  S  E  E   
---------------------------------------------|
---------------------------------------------|
---------------------------------------------|
--9------------------9--------9--------9--9--|
--7------------7--7--7--7--7--7--7--7--7--7--|
---------------------------------------------|


     PM PM    PM PM    PM PM             PM PM    PM PM    PM PM        
  E  S  S  E  S  S  E  S  S  E  E     E  S  S  E  S  S  E  S  S  E  E   
-----------------------------------|-----------------------------------|
-----------------------------------|-----------------------------------|
-----------------------------------|-----------------------------------|
--5--------5--------5--------5--5--|--7--------7--------7--------7--7--|
--3--3--3--3--3--3--3--3--3--3--3--|--5--5--5--5--5--5--5--5--5--5--5--|
-----------------------------------|-----------------------------------|


                                  PM PM    PM PM    PM PM        
  E.  E.  E.  S S S S S S S    E  S  S  E  S  S  E  S  S  E  E   
----------------------------|-----------------------------------|
----------------------------|-----------------------------------|
----------------------------|-----------------------------------|
--9---4---5---------5-4-2---|--9--------9--------9--------9--9--|
--7---2---3---2-3-2-------5-|--7--7--7--7--7--7--7--7--7--7--7--|
----------------------------|-----------------------------------|


     PM PM    PM PM    PM PM             PM PM    PM PM    PM PM        
  E  S  S  E  S  S  E  S  S  E  E     E  S  S  E  S  S  E  S  S  E  E   
-----------------------------------|-----------------------------------|
-----------------------------------|-----------------------------------|
-----------------------------------|-----------------------------------|
--5--------5--------5--------5--5--|--7--------7--------7--------7--7--|
--3--3--3--3--3--3--3--3--3--3--3--|--5--5--5--5--5--5--5--5--5--5--5--|
-----------------------------------|-----------------------------------|


                                 Riff B                              
  E.  E.  E.  S S S S S S S      S      S S S S S S S E  S S S S E   
----------------------------||--------------------------------------|
----------------------------||--------------------------------------|
----------------------------||*-----------------------4-------------|
--9---4---5---------5-4-2---||*---------4-5-4-5-7-5-4----5-4-5-4----|
--7---2---3---2-3-2-------5-||---7-------------------------------7--|
----------------------------||--------------------------------------|


  S S S S S S S S E  S S S S E     S S S S S S S S E  S S S S E   
--------------------------------|--------------------------------|
--------------------------------|--------------------------------|
------------------4-------------|------------------4-------------|
------4---4-5-4-5----5-4-5-4----|----4-5-4-5-7-5-4----5-4-5-4----|
--L-7---7--------------------7--|--7--------------------------7--|
--------------------------------|--------------------------------|


                                      Interludio 1a                        
  S S S S S S S S E  S S S S E        Q             S S S S Q     S S S S  
---------------------------------||---------------------------------------|
---------------------------------||---------------------------------------|
------------------4-------------*||*------------------------4~----L-4-----|
------4---4-5-4-5----5-4-5-4----*||*--------------------4-5-----------5-4-|
--L-7---7--------------------7---||---7~------------L-7-------------------|
---------------------------------||---------------------------------------|


  E  S S E  S S E  S S S S E     Q     S S S S Q     S S S S  
------------------------------|------------------------------|
------------------------------|------------------------------|
---------4-------------4------|----------------4~----L-4-----|
-----4-5----5-4----4-5---5-4--|------------4-5-----------5-4-|
--7-------------7-------------|--7~----L-7-------------------|
------------------------------|------------------------------|


                                     Interludio 1b                 
  E  S S E  S S E  S S S S E         Q.           S S Q.      S S  
-------------------------------||---------------------------------|
-------------------------------||---------------------------------|
---------4-------------4------*||*--------------------7~----------|
-----4-5----5-4----4-5---5-4--*||*----------------7-9---------9-7-|
--7-------------7--------------||---10~---------------------------|
-------------------------------||---------------------------------|


   E  S S E  S S  E  S S S S E      Q.      S S T   E.   E  T S S  
--------------------------------|---------------------------------|
--------------------------------|---------------------------------|
----------7--------------7------|---------------7s~-9~---L--L-----|
------7-9----9-7-----7-9---9-7--|-----------7-9---------------9-7-|
--10-------------10-------------|--10~----------------------------|
--------------------------------|---------------------------------|


   E  S S E  S S  E  S S S S E        E  S S E  S S  E  S S S S E   
---------------------------------||--------------------------------|
---------------------------------||--------------------------------|
----------7--------------7------*||----------7--------------7------|
------7-9----9-7-----7-9---9-7--*||------7-9----9-7-----7-9---9-7--|
--10-------------10--------------||--10-------------10-------------|
---------------------------------||--------------------------------|


  Verso Riff 4                                
               PM PM    PM PM    PM PM        
  E            S  S  E  S  S  E  S  S  E  E   
---------------------------------------------|
---------------------------------------------|
---------------------------------------------|
--9------------------9--------9--------9--9--|
--7------------7--7--7--7--7--7--7--7--7--7--|
---------------------------------------------|


     PM PM    PM PM    PM PM             PM PM    PM PM    PM PM        
  E  S  S  E  S  S  E  S  S  E  E     E  S  S  E  S  S  E  S  S  E  E   
-----------------------------------|-----------------------------------|
-----------------------------------|-----------------------------------|
-----------------------------------|-----------------------------------|
--5--------5--------5--------5--5--|--7--------7--------7--------7--7--|
--3--3--3--3--3--3--3--3--3--3--3--|--5--5--5--5--5--5--5--5--5--5--5--|
-----------------------------------|-----------------------------------|


     PM PM                            PM PM    PM PM    PM PM        
  E  S  S  Q    S  S E  S  S E     E  S  S  E  S  S  E  S  S  E  E   
--------------------------------|-----------------------------------|
--------------------------------|-----------------------------------|
--------------------------------|-----------------------------------|
--9--------9----5p-4----5p-4----|--9--------9--------9--------9--9--|
--7--7--7--7---------7-------7--|--7--7--7--7--7--7--7--7--7--7--7--|
--------------------------------|-----------------------------------|


     PM PM    PM PM    PM PM             PM PM    PM PM    PM PM        
  E  S  S  E  S  S  E  S  S  E  E     E  S  S  E  S  S  E  S  S  E  E   
-----------------------------------|-----------------------------------|
-----------------------------------|-----------------------------------|
-----------------------------------|-----------------------------------|
--5--------5--------5--------5--5--|--7--------7--------7--------7--7--|
--3--3--3--3--3--3--3--3--3--3--3--|--5--5--5--5--5--5--5--5--5--5--5--|
-----------------------------------|-----------------------------------|


     PM PM                            PM PM    PM PM    PM PM        
  E  S  S  Q    S  S E  S  S E     E  S  S  E  S  S  E  S  S  E  E   
--------------------------------|-----------------------------------|
--------------------------------|-----------------------------------|
--------------------------------|-----------------------------------|
--9--------9----5p-4----5p-4----|--9--------9--------9--------9--9--|
--7--7--7--7---------7-------7--|--7--7--7--7--7--7--7--7--7--7--7--|
--------------------------------|-----------------------------------|


     PM PM    PM PM    PM PM             PM PM    PM PM    PM PM        
  E  S  S  E  S  S  E  S  S  E  E     E  S  S  E  S  S  E  S  S  E  E   
-----------------------------------|-----------------------------------|
-----------------------------------|-----------------------------------|
-----------------------------------|-----------------------------------|
--5--------5--------5--------5--5--|--7--------7--------7--------7--7--|
--3--3--3--3--3--3--3--3--3--3--3--|--5--5--5--5--5--5--5--5--5--5--5--|
-----------------------------------|-----------------------------------|


     PM PM                            PM PM    PM PM    PM PM        
  E  S  S  Q    S  S E  S  S E     E  S  S  E  S  S  E  S  S  E  E   
--------------------------------|-----------------------------------|
--------------------------------|-----------------------------------|
--------------------------------|-----------------------------------|
--9--------9----5p-4----5p-4----|--9--------9--------9--------9--9--|
--7--7--7--7---------7-------7--|--7--7--7--7--7--7--7--7--7--7--7--|
--------------------------------|-----------------------------------|


     PM PM    PM PM    PM PM             PM PM    PM PM    PM PM        
  E  S  S  E  S  S  E  S  S  E  E     E  S  S  E  S  S  E  S  S  E  E   
-----------------------------------|-----------------------------------|
-----------------------------------|-----------------------------------|
-----------------------------------|-----------------------------------|
--5--------5--------5--------5--5--|--7--------7--------7--------7--7--|
--3--3--3--3--3--3--3--3--3--3--3--|--5--5--5--5--5--5--5--5--5--5--5--|
-----------------------------------|-----------------------------------|


                                   Interludio 2                  
     PM PM                                                       
  E  S  S  Q    S  S E  S  S E     Q.           S S Q.      S S  
--------------------------------|-------------------------------|
--------------------------------|-------------------------------|
--------------------------------|-------------------4~----------|
--9--------9----5p-4----5p-4----|---------------4-5---------5-4-|
--7--7--7--7---------7-------7--|--7~---------------------------|
--------------------------------|-------------------------------|


  E  S S E  S S E  S S S S E     Q.      S S Q.      S S  
------------------------------|--------------------------|
------------------------------|--------------------------|
---------4-------------4------|--------------4~----------|
-----4-5----5-4----4-5---5-4--|----------4-5---------5-4-|
--7-------------7-------------|--7~----------------------|
------------------------------|--------------------------|


  E  S S E  S S E  S S S S E     Q.      S S Q.      S S  
------------------------------|--------------------------|
------------------------------|--------------------------|
---------4-------------4------|--------------4~----------|
-----4-5----5-4----4-5---5-4--|----------4-5---------5-4-|
--7-------------7-------------|--7~----------------------|
------------------------------|--------------------------|


  E  S S E  S S E  S S S S E     Q.      S S Q.      S S  
------------------------------|--------------------------|
------------------------------|--------------------------|
---------4-------------4------|--------------4~----------|
-----4-5----5-4----4-5---5-4--|----------4-5---------5-4-|
--7-------------7-------------|--7~----------------------|
------------------------------|--------------------------|


                                 Interludio 3                              
  E  S S E  S S E  S S S S E     W                    H        E  Q    E   
------------------------------|--------------------|----------------------|
------------------------------|--------------------|----------------------|
---------4-------------4------|--------------------|----------------------|
-----4-5----5-4----4-5---5-4--|--------------------|----------------------|
--7-------------7-------------|--7~----------------|--L--------L-------9--|
------------------------------|--------------------|-------------------7--|


  W                   H.           E  E     W                 
-------------------|---------------------|-------------------|
-------------------|---------------------|-------------------|
--9----------------|--L------------L-----|--5----------------|
--9----------------|--L------------L-----|--5----------------|
--7----------------|--L------------L--5--|--3----------------|
-------------------|------------------3--|-------------------|


  H.           E  E     W                   W                 
---------------------|-------------------|-------------------|
---------------------|-------------------|-------------------|
--L------------L-----|--9----------------|--L----------------|
--L------------L-----|--9----------------|--L----------------|
--L------------L--9--|--7----------------|--L----------------|
------------------7--|-------------------|-------------------|


    Puente                                                                 
    S      S S S S S S S S S S S E  E     S S S S S S S S S S S S E  E     
|--------------------------------------|---------------------------------||
|--------------------------------------|---------------------------------||
|*-----------------4-------------------|------------4-------------------*||
|*---------4-5-4-5---5-4-5-4-----5--7--|----4-5-4-5---5-4-5-4-----5--7--*||
|---7------------------------7-5-3--5--|--7-------------------7-5-3--5---||
|--------------------------------------|---------------------------------||


  Riff C                                                           
  E      S E  S E  S E  S S S S S    E  S E  S E  S  S E  S  S E   
----------------------------------|-------------------------------|
----------------------------------|-------------------------------|
----------------------------------|-------------------------------|
--9------x-9--x-9--x-9--x-9-9-9-9-|--9--x-9--x-9--5p-4------------|
--7------x-7--x-7--x-7--x-7-7-7-7-|--7--x-7--x-7-------5--3p-2----|
----------------------------------|----------------------------3--|


  E  S E  S E  S E  S S S S S    E  S E  S E  S  S E  S  S E   
------------------------------|-------------------------------|
------------------------------|-------------------------------|
------------------------------|-------------------------------|
--7--x-7--x-7--x-7--x-7-7-7-7-|--7--x-7--x-7--5p-4------------|
--5--x-5--x-5--x-5--x-5-5-5-5-|--5--x-5--x-5-------5--3p-2----|
------------------------------|----------------------------3--|


  E  S E  S E  S E  S S S S S    E  S E  S E  S  S E  S  S E   
------------------------------|-------------------------------|
------------------------------|-------------------------------|
------------------------------|-------------------------------|
--9--x-9--x-9--x-9--x-9-9-9-9-|--9--x-9--x-9--5p-4------------|
--7--x-7--x-7--x-7--x-7-7-7-7-|--7--x-7--x-7-------5--3p-2----|
------------------------------|----------------------------3--|


  Solo 1 Dave Murray                                                           
  E                  S E  S E  S E  S S S S S    E  S E  S E  S  S E  S  S E   
----------------------------------------------|-------------------------------|
----------------------------------------------|-------------------------------|
----------------------------------------------|-------------------------------|
--7------------------x-7--x-7--x-7--x-7-7-7-7-|--7--x-7--x-7--5p-4------------|
--5------------------x-5--x-5--x-5--x-5-5-5-5-|--5--x-5--x-5-------5--3p-2----|
----------------------------------------------|----------------------------3--|


  E  S E  S E  S E  S S S S S    E  S E  S E  S  S E  S  S E   
------------------------------|-------------------------------|
------------------------------|-------------------------------|
------------------------------|-------------------------------|
--9--x-9--x-9--x-9--x-9-9-9-9-|--9--x-9--x-9--5p-4------------|
--7--x-7--x-7--x-7--x-7-7-7-7-|--7--x-7--x-7-------5--3p-2----|
------------------------------|----------------------------3--|


  E  S E  S E  S E  S S S S S    E  S E  S E  S  S E  S  S E   
------------------------------|-------------------------------|
------------------------------|-------------------------------|
------------------------------|-------------------------------|
--7--x-7--x-7--x-7--x-7-7-7-7-|--7--x-7--x-7--5p-4------------|
--5--x-5--x-5--x-5--x-5-5-5-5-|--5--x-5--x-5-------5--3p-2----|
------------------------------|----------------------------3--|


  E  S E  S E  S E  S S S S S    E  S E  S E  S  S E  S  S E   
------------------------------|-------------------------------|
------------------------------|-------------------------------|
------------------------------|-------------------------------|
--9--x-9--x-9--x-9--x-9-9-9-9-|--9--x-9--x-9--5p-4------------|
--7--x-7--x-7--x-7--x-7-7-7-7-|--7--x-7--x-7-------5--3p-2----|
------------------------------|----------------------------3--|


  E  S E  S E  S E  S S S S S    E  S E  S E  S  S E  S  S E   
------------------------------|-------------------------------|
------------------------------|-------------------------------|
------------------------------|-------------------------------|
--7--x-7--x-7--x-7--x-7-7-7-7-|--7--x-7--x-7--5p-4------------|
--5--x-5--x-5--x-5--x-5-5-5-5-|--5--x-5--x-5-------5--3p-2----|
------------------------------|----------------------------3--|


   Solo 2 Adrian Smith                         
   Q                   Q     E.      S  Q      
----------------------15----------------------|
--15b-----------------------15pbr---12-10~----|
----------------------------------------------|
----------------------------------------------|
----------------------------------------------|
----------------------------------------------|


  Q     S   S  S  S  S  S Q.       
----------------------------------|
--L----12p-10-------10------------|
--------------12-12----12-9~------|
----------------------------------|
----------------------------------|
----------------------------------|


                       |---3--|  |---3--|  |---3--|  |---3--|  |---3--|  
   S   S  S  S   S  S  S   S  S  S   S  S  S   S  S  S   S  S  S   S  S  
--17p-14----19p-14----17p-14----19p-14----17p-14----19p-14----17p-14----|
---------15--------15--------15--------15--------15--------15--------15-|
------------------------------------------------------------------------|
------------------------------------------------------------------------|
------------------------------------------------------------------------|
------------------------------------------------------------------------|


   |---3--|  |---3--|  |---3--|  |---3--|                 
   S   S  S  S   S  S  S   S  S  S   S  S  Q.       S  S  
--19p-14----17p-14----19p-14----17p-14----14~---------12-|
---------15--------15--------15--------15----------15----|
---------------------------------------------------------|
---------------------------------------------------------|
---------------------------------------------------------|
---------------------------------------------------------|


   |---3--|  |---3--|  |---3--|   |---3--|  |--3--|   |--3--| |--3--|  |--3--|  
   S   S  S  S   S  S  S  S   S   S   S  S  S  S  S   S  S  S S  S  S  S S   S  
--15p-12----12p-10----10-------------------------------------------------------|
---------15--------12----12p-10h-12p-10----10----------------------------------|
----------------------------------------12----12p-9h-12p-9----9----------------|
-----------------------------------------------------------12---12p-9----9h-12-|
----------------------------------------------------------------------12-------|
-------------------------------------------------------------------------------|


   H         S  S  Q      S  S  
-------------------------10-12-|
------------------10b----------|
--12~--------9-12--------------|
-------------------------------|
-------------------------------|
-------------------------------|


   T         T         T         T         T         T         T         T      
   |---3--|  |---3--|  |---3--|  |---3--|  |---3--|  |---3--|  |---3--|  |---3--
   S  S   S  S  S   S  S  S   S  S  S   S  S  S   S  S  S   S  S  S   S  S  S   
--20-10h-12-19-10h-12-20-10h-12-19-10h-12-17-10h-12-19-10h-12-15-10h-12-14-10h-1
--------------------------------------------------------------------------------
--------------------------------------------------------------------------------
--------------------------------------------------------------------------------
--------------------------------------------------------------------------------
--------------------------------------------------------------------------------


                                     Riff D                           
   T                                                                  
   |---3--|                                                           
   S  S   S   E   H.                 E      S E  S E  S E  S S S S S  
--15-10h-12p-10--13brb------------|----------------------------------|
----------------------------------|----------------------------------|
----------------------------------|----------------------------------|
----------------------------------|--9------x-9--x-9--x-9--x-9-9-9-9-|
----------------------------------|--7------x-7--x-7--x-7--x-7-7-7-7-|
----------------------------------|----------------------------------|


  E  S E  S E  S E  S S S S S    E  S E.  S E.  S E.  S S  
------------------------------|---------------------------|
------------------------------|---------------------------|
------------------------------|---------------------------|
--9--x-9--x-9--x-9--x-9-9---5-|--L----------5-----------9-|
--7--x-7--x-7--x-7--x-7-7-7---|-----7-5---7-----7-5-----7-|
------------------------------|-----------------------7---|


  S S E  S E  S E  S S. T E  S    S S E  S E  S E  S E  S S S  
-------------------------------|------------------------------|
-------------------------------|------------------------------|
-------------------------------|------------------------------|
--L-x-9--x-9--x-9--x-9----9----|------9--x-9--x-9--x-9------5-|
--L-x-7--x-7--x-7--x-7----7----|--7-7-7--x-7--x-7--x-7--7-7---|
-------------------------------|------------------------------|


  E  S E.  S E.  S E.  S S    S S E  S E  S E  S S. T E  S  
---------------------------|-------------------------------|
---------------------------|-------------------------------|
---------------------------|-------------------------------|
--L----------5-----------9-|--L-x-9--x-9--x-9--x-9----9----|
-----7-5---7-----7-5-----7-|--L-x-7--x-7--x-7--x-7----7----|
-----------------------7---|-------------------------------|


  S S E  S E  S E  S E  S S S    E  S E.  S E.  S E.  S S  
------------------------------|---------------------------|
------------------------------|---------------------------|
------------------------------|---------------------------|
------9--x-9--x-9--x-9------5-|--L----------5-----------9-|
--7-7-7--x-7--x-7--x-7--7-7---|-----7-5---7-----7-5-----7-|
------------------------------|-----------------------7---|


  S S E  S E  S E  S S. T E  S    S S S S S S S S S S S S E  S. T  
-------------------------------|----------------------------------|
-------------------------------|----------------------------------|
-------------------------------|----------------------------------|
--L-x-9--x-9--x-9--x-9----9----|--9-9-9-9-9-9-9-9-9-9-9-9-9--9----|
--L-x-7--x-7--x-7--x-7----7----|--7-7-7-7-7-7-7-7-7-7-7-7-7--7----|
-------------------------------|----------------------------------|


     Riff E                                                                   
     S     S S S S  S S S E  S S S S  E     S  S S  S S S S S E  S S S S  E   
|----------------------------------------|-----------------------------------|
|----------------------------------------|-----------------------------------|
|*------------------------7--------------|--------------------7--------------|
|*---------7-9-7-9-10-9-7----9-7-9-7-----|-------7----7-9-7-9----9-7-9-7-----|
|---10-------------------------------10--|--L-10---10--------------------10--|
|----------------------------------------|-----------------------------------|


   S S S S S  S S S E  S S S S  E     S  S S  S S S S S E  S S S S  E     
-----------------------------------|------------------------------------||
-----------------------------------|------------------------------------||
--------------------7--------------|--------------------7--------------*||
-----7-9-7-9-10-9-7----9-7-9-7-----|-------7----7-9-7-9----9-7-9-7-----*||
--10---------------------------10--|--L-10---10--------------------10---||
-----------------------------------|------------------------------------||


    Riff F                                                                   
    S     S S S S  S S S E  S S S S  E     S  S S  S S S S S E  S S S S  E   
----------------------------------------|-----------------------------------|
----------------------------------------|-----------------------------------|
*------------------------7--------------|--------------------7--------------|
*---------7-9-7-9-10-9-7----9-7-9-7-----|-------7----7-9-7-9----9-7-9-7-----|
---10-------------------------------10--|--L-10---10--------------------10--|
----------------------------------------|-----------------------------------|


   S S S S S  S S S E  S S S S  E     E.  E.  E.  S S S S S S S    
-----------------------------------|-----------------------------||
-----------------------------------|-----------------------------||
--------------------7--------------|----------------------------*||
-----7-9-7-9-10-9-7----9-7-9-7-----|--9---4---5---------5-4-2---*||
--10---------------------------10--|--7---2---3---2-3-2-------5--||
-----------------------------------|-----------------------------||


  Coro                                                      
  E    S E  S E  S E  S E  E     E  S E  S E  S E  S E  E   
------------------------------|----------------------------|
------------------------------|----------------------------|
--9----x-9--x-9--x-9--x-9--9--|--5--x-5--x-5--x-5--x-5--5--|
--9----x-9--x-9--x-9--x-9--9--|--5--x-5--x-5--x-5--x-5--5--|
--7----x-7--x-7--x-7--x-7--7--|--3--x-3--x-3--x-3--x-3--3--|
------------------------------|----------------------------|


  E  S E  S E  S E  S E  E     E  S E  S E  S E  S E  E   
----------------------------|----------------------------|
----------------------------|----------------------------|
--7--x-7--x-7--x-7--x-7--7--|--9--x-9--x-9--x-9--x-9--9--|
--7--x-7--x-7--x-7--x-7--7--|--9--x-9--x-9--x-9--x-9--9--|
--5--x-5--x-5--x-5--x-5--5--|--7--x-7--x-7--x-7--x-7--7--|
----------------------------|----------------------------|


  E  S E  S E  S E  S E  E     E  S E  S E  S E  S E  E   
----------------------------|----------------------------|
----------------------------|----------------------------|
--9--x-9--x-9--x-9--x-9--9--|--5--x-5--x-5--x-5--x-5--5--|
--9--x-9--x-9--x-9--x-9--9--|--5--x-5--x-5--x-5--x-5--5--|
--7--x-7--x-7--x-7--x-7--7--|--3--x-3--x-3--x-3--x-3--3--|
----------------------------|----------------------------|


                               Interludio 4                            
  E  S E  S E  S E  S E  E     W                   H.           E  E   
----------------------------|-------------------|---------------------|
----------------------------|-------------------|---------------------|
--7--x-7--x-7--x-7--x-7-----|--9----------------|--L------------L-----|
--7--x-7--x-7--x-7--x-7-----|--9----------------|--L------------L-----|
--5--x-5--x-5--x-5--x-5--9--|--7----------------|--L------------L--7--|
-------------------------7--|-------------------|------------------5--|


  W                   H.           E  E     W                 
-------------------|---------------------|-------------------|
-------------------|---------------------|-------------------|
--7----------------|--L------------L-----|--5----------------|
--7----------------|--L------------L-----|--5----------------|
--5----------------|--L------------L--5--|--3----------------|
-------------------|------------------3--|-------------------|


  H.           E  E     W                   H.           E  E   
---------------------|-------------------|---------------------|
---------------------|-------------------|---------------------|
--L------------L-----|--7----------------|--L------------L-----|
--L------------L-----|--7----------------|--L------------L-----|
--L------------L--7--|--5----------------|--L------------L--9--|
------------------5--|-------------------|------------------7--|


  Outro                                                                         
  W                   W                   W                   W                 
-------------------|-------------------|-------------------|-------------------|
-------------------|-------------------|-------------------|-------------------|
--9----------------|--L----------------|--L----------------|--L----------------|
--9----------------|--L----------------|--L----------------|--L----------------|
--7----------------|--L----------------|--L----------------|--L----------------|
-------------------|-------------------|-------------------|-------------------|


  W                   W                   W                   W                 
-------------------|-------------------|-------------------|-------------------|
-------------------|-------------------|-------------------|-------------------|
--L----------------|--L----------------|--L----------------|--L----------------|
--L----------------|--L----------------|--L----------------|--L----------------|
--L----------------|--L----------------|--L----------------|--L----------------|
-------------------|-------------------|-------------------|-------------------|


  W                   W                   W                   W                 
-------------------|-------------------|-------------------|-------------------|
-------------------|-------------------|-------------------|-------------------|
--L----------------|--L----------------|--L----------------|--L----------------|
--L----------------|--L----------------|--L----------------|--L----------------|
--L----------------|--L----------------|--L----------------|--L----------------|
-------------------|-------------------|-------------------|-------------------|


  S S S S Q    S S S S Q       Q       
----------------------------|--------||
----------------------------|--------||
----------------------------|--------||
--9-9-9-9-9----9-9-9-9-9----|--L\----||
--7-7-7-7-7----7-7-7-7-7----|--L\----||
----------------------------|--------||




Guitar #3:
                             
Janick Gers

          Intro                                                     
     S    W                   W                   W                 
E||----|-------------------|-------------------|-------------------|
B||----|-------------------|-------------------|-------------------|
G||----|-------------------|-------------------|-------------------|
D||----|-------------------|-------------------|-------------------|
A||----|-------------------|-------------------|-------------------|
E||----|-------------------|-------------------|-------------------|


  Verso Riff 1                                                                  
  W                   W                   W                   W                 
-------------------|-------------------|-------------------|-------------------|
-------------------|-------------------|-------------------|-------------------|
-------------------|-------------------|-------------------|-------------------|
-------------------|-------------------|-------------------|-------------------|
-------------------|-------------------|-------------------|-------------------|
-------------------|-------------------|-------------------|-------------------|


  W                   W                   W                   W                 
-------------------|-------------------|-------------------|-------------------|
-------------------|-------------------|-------------------|-------------------|
-------------------|-------------------|-------------------|-------------------|
-------------------|-------------------|-------------------|-------------------|
-------------------|-------------------|-------------------|-------------------|
-------------------|-------------------|-------------------|-------------------|


                        NH   NH   NH   NH   NH   NH   NH   NH  
  W                     E    E    E    E    E    E    E    E   
-------------------|------------------------------------------|
-------------------|------------------------------------------|
-------------------|--<>7--<>7------------<>5--<>5------------|
-------------------|------------<>7--<>5------------<>5--<>7--|
-------------------|------------------------------------------|
-------------------|------------------------------------------|


    NH   NH   NH   NH   NH   NH   NH   NH  
    E    E    E    E    E    E    E    E   
------------------------------------------|
------------------------------------------|
--<>7--<>7------------<>5--<>5------------|
------------<>7--<>5------------<>5--<>7--|
------------------------------------------|
------------------------------------------|


    NH   NH   NH   NH   NH   NH   NH   NH  
    E    E    E    E    E    E    E    E   
------------------------------------------|
------------------------------------------|
--<>7--<>7------------<>5--<>5------------|
------------<>7--<>5------------<>5--<>7--|
------------------------------------------|
------------------------------------------|


    NH   NH   NH   NH   NH   NH   NH   NH  
    E    E    E    E    E    E    E    E   
------------------------------------------|
------------------------------------------|
--<>7--<>7------------<>5--<>5------------|
------------<>7--<>5------------<>5--<>7--|
------------------------------------------|
------------------------------------------|


    NH   NH   NH   NH   NH   NH   NH   NH  
    E    E    E    E    E    E    E    E   
------------------------------------------|
------------------------------------------|
--<>7--<>7------------<>5--<>5------------|
------------<>7--<>5------------<>5--<>7--|
------------------------------------------|
------------------------------------------|


    NH   NH   NH   NH   NH   NH   NH   NH  
    E    E    E    E    E    E    E    E   
------------------------------------------|
------------------------------------------|
--<>7--<>7------------<>5--<>5------------|
------------<>7--<>5------------<>5--<>7--|
------------------------------------------|
------------------------------------------|


    NH   NH   NH   NH   NH   NH   NH   NH  
    E    E    E    E    E    E    E    E   
------------------------------------------|
------------------------------------------|
--<>7--<>7------------<>5--<>5------------|
------------<>7--<>5------------<>5--<>7--|
------------------------------------------|
------------------------------------------|


    NH   NH   NH   NH   NH   NH   NH   NH  
    E    E    E    E    E    E    E    E   
------------------------------------------|
------------------------------------------|
--<>7--<>7------------<>5--<>5------------|
------------<>7--<>5------------<>5--<>7--|
------------------------------------------|
------------------------------------------|


  Riff A                                                                    
         PM PM    PM PM    PM PM             PM PM    PM PM    PM PM        
  E      S  S  E  S  S  E  S  S  E  E     E  S  S  E  S  S  E  S  S  E  E   
---------------------------------------|-----------------------------------|
---------------------------------------|-----------------------------------|
---------------------------------------|-----------------------------------|
--9------------9--------9--------9--9--|--5--------5--------5--------5--5--|
--7------7--7--7--7--7--7--7--7--7--7--|--3--3--3--3--3--3--3--3--3--3--3--|
---------------------------------------|-----------------------------------|


     PM PM    PM PM    PM PM             PM PM                       
  E  S  S  E  S  S  E  S  S  E  E     E  S  S  Q    S  S E  S  S E   
-----------------------------------|--------------------------------|
-----------------------------------|--------------------------------|
-----------------------------------|--------------------------------|
--7--------7--------7--------7--7--|--9--------9----5p-4----5p-4----|
--5--5--5--5--5--5--5--5--5--5--5--|--7--7--7--7---------7-------7--|
-----------------------------------|--------------------------------|


     PM PM    PM PM    PM PM             PM PM    PM PM    PM PM        
  E  S  S  E  S  S  E  S  S  E  E     E  S  S  E  S  S  E  S  S  E  E   
-----------------------------------|-----------------------------------|
-----------------------------------|-----------------------------------|
-----------------------------------|-----------------------------------|
--9--------9--------9--------9--9--|--5--------5--------5--------5--5--|
--7--7--7--7--7--7--7--7--7--7--7--|--3--3--3--3--3--3--3--3--3--3--3--|
-----------------------------------|-----------------------------------|


     PM PM    PM PM    PM PM             PM PM                       
  E  S  S  E  S  S  E  S  S  E  E     E  S  S  Q    S  S E  S  S E   
-----------------------------------|--------------------------------|
-----------------------------------|--------------------------------|
-----------------------------------|--------------------------------|
--7--------7--------7--------7--7--|--9--------9----5p-4----5p-4----|
--5--5--5--5--5--5--5--5--5--5--5--|--7--7--7--7---------7-------7--|
-----------------------------------|--------------------------------|


    Riff B                                                               
    S      S S S S S S S E  S S S S E     S S S S S S S S E  S S S S E   
|--------------------------------------|--------------------------------|
|--------------------------------------|--------------------------------|
|*-----------------------4-------------|------------------4-------------|
|*---------4-5-4-5-7-5-4----5-4-5-4----|------4---4-5-4-5----5-4-5-4----|
|---7-------------------------------7--|--L-7---7--------------------7--|
|--------------------------------------|--------------------------------|


  S S S S S S S S E  S S S S E     S S S S S S S S E  S S S S E     
--------------------------------|---------------------------------||
--------------------------------|---------------------------------||
------------------4-------------|------------------4-------------*||
----4-5-4-5-7-5-4----5-4-5-4----|------4---4-5-4-5----5-4-5-4----*||
--7--------------------------7--|--L-7---7--------------------7---||
--------------------------------|---------------------------------||


  Verso Riff 2                                                              
  E            H.           E     E  H.           E     E  H.           E   
-------------------------------|---------------------|---------------------|
-------------------------------|---------------------|---------------------|
-------------------------------|---------------------|---------------------|
--9----------------------------|--5------------------|--7------------------|
--7-------------------------5--|--3---------------7--|--5---------------9--|
----------------------------3--|------------------5--|------------------7--|


  E.  E.  E.  S S S S S S S    E  H.           E     E  H.           E   
----------------------------|---------------------|---------------------|
----------------------------|---------------------|---------------------|
----------------------------|---------------------|---------------------|
--9---4---5---------5-4-2---|--9------------------|--5------------------|
--7---2---3---2-3-2-------5-|--7---------------5--|--3---------------7--|
----------------------------|------------------3--|------------------5--|


  E  H.           E     E.  E.  E.  S S S S S S S  
---------------------|----------------------------|
---------------------|----------------------------|
---------------------|----------------------------|
--7------------------|--9---4---5---------5-4-2---|
--5---------------9--|--7---2---3---2-3-2-------5-|
------------------7--|----------------------------|


  Verso Riff 3                                
               PM PM    PM PM    PM PM        
  E            S  S  E  S  S  E  S  S  E  E   
---------------------------------------------|
---------------------------------------------|
---------------------------------------------|
--9------------------9--------9--------9--9--|
--7------------7--7--7--7--7--7--7--7--7--7--|
---------------------------------------------|


     PM PM    PM PM    PM PM             PM PM    PM PM    PM PM        
  E  S  S  E  S  S  E  S  S  E  E     E  S  S  E  S  S  E  S  S  E  E   
-----------------------------------|-----------------------------------|
-----------------------------------|-----------------------------------|
-----------------------------------|-----------------------------------|
--5--------5--------5--------5--5--|--7--------7--------7--------7--7--|
--3--3--3--3--3--3--3--3--3--3--3--|--5--5--5--5--5--5--5--5--5--5--5--|
-----------------------------------|-----------------------------------|


                                  PM PM    PM PM    PM PM        
  E.  E.  E.  S S S S S S S    E  S  S  E  S  S  E  S  S  E  E   
----------------------------|-----------------------------------|
----------------------------|-----------------------------------|
----------------------------|-----------------------------------|
--9---4---5---------5-4-2---|--9--------9--------9--------9--9--|
--7---2---3---2-3-2-------5-|--7--7--7--7--7--7--7--7--7--7--7--|
----------------------------|-----------------------------------|


     PM PM    PM PM    PM PM             PM PM    PM PM    PM PM        
  E  S  S  E  S  S  E  S  S  E  E     E  S  S  E  S  S  E  S  S  E  E   
-----------------------------------|-----------------------------------|
-----------------------------------|-----------------------------------|
-----------------------------------|-----------------------------------|
--5--------5--------5--------5--5--|--7--------7--------7--------7--7--|
--3--3--3--3--3--3--3--3--3--3--3--|--5--5--5--5--5--5--5--5--5--5--5--|
-----------------------------------|-----------------------------------|


                                 Riff B                              
  E.  E.  E.  S S S S S S S      S      S S S S S S S E  S S S S E   
----------------------------||--------------------------------------|
----------------------------||--------------------------------------|
----------------------------||*-----------------------4-------------|
--9---4---5---------5-4-2---||*---------4-5-4-5-7-5-4----5-4-5-4----|
--7---2---3---2-3-2-------5-||---7-------------------------------7--|
----------------------------||--------------------------------------|


  S S S S S S S S E  S S S S E     S S S S S S S S E  S S S S E   
--------------------------------|--------------------------------|
--------------------------------|--------------------------------|
------------------4-------------|------------------4-------------|
------4---4-5-4-5----5-4-5-4----|----4-5-4-5-7-5-4----5-4-5-4----|
--L-7---7--------------------7--|--7--------------------------7--|
--------------------------------|--------------------------------|


                                      Interludio 1a                        
  S S S S S S S S E  S S S S E        Q             S S S S Q     S S S S  
---------------------------------||---------------------------------------|
---------------------------------||---------------------------------------|
------------------4-------------*||*------------------------4~----L-4-----|
------4---4-5-4-5----5-4-5-4----*||*--------------------4-5-----------5-4-|
--L-7---7--------------------7---||---7~------------L-7-------------------|
---------------------------------||---------------------------------------|


  E  S S E  S S E  S S S S E     Q     S S S S Q     S S S S  
------------------------------|------------------------------|
------------------------------|------------------------------|
---------4-------------4------|----------------4~----L-4-----|
-----4-5----5-4----4-5---5-4--|------------4-5-----------5-4-|
--7-------------7-------------|--7~----L-7-------------------|
------------------------------|------------------------------|


                                    Interludio 1b                  
  E  S S E  S S E  S S S S E        Q.            S S Q.      S S  
-------------------------------||---------------------------------|
-------------------------------||---------------------------------|
---------4-------------4------*||*--------------------4~----------|
-----4-5----5-4----4-5---5-4--*||*----------------4-5---------5-4-|
--7-------------7--------------||---7~----------------------------|
-------------------------------||---------------------------------|


  E  S S E  S S E  S S S S E     Q.      S S Q.      S S  
------------------------------|--------------------------|
------------------------------|--------------------------|
---------4-------------4------|--------------4~----------|
-----4-5----5-4----4-5---5-4--|----------4-5---------5-4-|
--7-------------7-------------|--7~----------------------|
------------------------------|--------------------------|


  E  S S E  S S E  S S S S E       E  S S E  S S E  S S S S E   
-------------------------------||------------------------------|
-------------------------------||------------------------------|
---------4-------------4------*||---------4-------------4------|
-----4-5----5-4----4-5---5-4--*||-----4-5----5-4----4-5---5-4--|
--7-------------7--------------||--7-------------7-------------|
-------------------------------||------------------------------|


  Verso Riff 4                                
               PM PM    PM PM    PM PM        
  E            S  S  E  S  S  E  S  S  E  E   
---------------------------------------------|
---------------------------------------------|
---------------------------------------------|
--9------------------9--------9--------9--9--|
--7------------7--7--7--7--7--7--7--7--7--7--|
---------------------------------------------|


     PM PM    PM PM    PM PM             PM PM    PM PM    PM PM        
  E  S  S  E  S  S  E  S  S  E  E     E  S  S  E  S  S  E  S  S  E  E   
-----------------------------------|-----------------------------------|
-----------------------------------|-----------------------------------|
-----------------------------------|-----------------------------------|
--5--------5--------5--------5--5--|--7--------7--------7--------7--7--|
--3--3--3--3--3--3--3--3--3--3--3--|--5--5--5--5--5--5--5--5--5--5--5--|
-----------------------------------|-----------------------------------|


     PM PM                            PM PM    PM PM    PM PM        
  E  S  S  Q    S  S E  S  S E     E  S  S  E  S  S  E  S  S  E  E   
--------------------------------|-----------------------------------|
--------------------------------|-----------------------------------|
--------------------------------|-----------------------------------|
--9--------9----5p-4----5p-4----|--9--------9--------9--------9--9--|
--7--7--7--7---------7-------7--|--7--7--7--7--7--7--7--7--7--7--7--|
--------------------------------|-----------------------------------|


     PM PM    PM PM    PM PM             PM PM    PM PM    PM PM        
  E  S  S  E  S  S  E  S  S  E  E     E  S  S  E  S  S  E  S  S  E  E   
-----------------------------------|-----------------------------------|
-----------------------------------|-----------------------------------|
-----------------------------------|-----------------------------------|
--5--------5--------5--------5--5--|--7--------7--------7--------7--7--|
--3--3--3--3--3--3--3--3--3--3--3--|--5--5--5--5--5--5--5--5--5--5--5--|
-----------------------------------|-----------------------------------|


     PM PM                            PM PM    PM PM    PM PM        
  E  S  S  Q    S  S E  S  S E     E  S  S  E  S  S  E  S  S  E  E   
--------------------------------|-----------------------------------|
--------------------------------|-----------------------------------|
--------------------------------|-----------------------------------|
--9--------9----5p-4----5p-4----|--9--------9--------9--------9--9--|
--7--7--7--7---------7-------7--|--7--7--7--7--7--7--7--7--7--7--7--|
--------------------------------|-----------------------------------|


     PM PM    PM PM    PM PM             PM PM    PM PM    PM PM        
  E  S  S  E  S  S  E  S  S  E  E     E  S  S  E  S  S  E  S  S  E  E   
-----------------------------------|-----------------------------------|
-----------------------------------|-----------------------------------|
-----------------------------------|-----------------------------------|
--5--------5--------5--------5--5--|--7--------7--------7--------7--7--|
--3--3--3--3--3--3--3--3--3--3--3--|--5--5--5--5--5--5--5--5--5--5--5--|
-----------------------------------|-----------------------------------|


     PM PM                            PM PM    PM PM    PM PM        
  E  S  S  Q    S  S E  S  S E     E  S  S  E  S  S  E  S  S  E  E   
--------------------------------|-----------------------------------|
--------------------------------|-----------------------------------|
--------------------------------|-----------------------------------|
--9--------9----5p-4----5p-4----|--9--------9--------9--------9--9--|
--7--7--7--7---------7-------7--|--7--7--7--7--7--7--7--7--7--7--7--|
--------------------------------|-----------------------------------|


     PM PM    PM PM    PM PM             PM PM    PM PM    PM PM        
  E  S  S  E  S  S  E  S  S  E  E     E  S  S  E  S  S  E  S  S  E  E   
-----------------------------------|-----------------------------------|
-----------------------------------|-----------------------------------|
-----------------------------------|-----------------------------------|
--5--------5--------5--------5--5--|--7--------7--------7--------7--7--|
--3--3--3--3--3--3--3--3--3--3--3--|--5--5--5--5--5--5--5--5--5--5--5--|
-----------------------------------|-----------------------------------|


                                   Interludio 2                  
     PM PM                                                       
  E  S  S  Q    S  S E  S  S E     Q.           S S Q.      S S  
--------------------------------|-------------------------------|
--------------------------------|-------------------------------|
--------------------------------|-------------------4~----------|
--9--------9----5p-4----5p-4----|---------------4-5---------5-4-|
--7--7--7--7---------7-------7--|--7~---------------------------|
--------------------------------|-------------------------------|


  E  S S E  S S E  S S S S E     Q.      S S Q.      S S  
------------------------------|--------------------------|
------------------------------|--------------------------|
---------4-------------4------|--------------4~----------|
-----4-5----5-4----4-5---5-4--|----------4-5---------5-4-|
--7-------------7-------------|--7~----------------------|
------------------------------|--------------------------|


  E  S S E  S S E  S S S S E     Q.      S S Q.      S S  
------------------------------|--------------------------|
------------------------------|--------------------------|
---------4-------------4------|--------------4~----------|
-----4-5----5-4----4-5---5-4--|----------4-5---------5-4-|
--7-------------7-------------|--7~----------------------|
------------------------------|--------------------------|


  E  S S E  S S E  S S S S E     Q.      S S Q.      S S  
------------------------------|--------------------------|
------------------------------|--------------------------|
---------4-------------4------|--------------4~----------|
-----4-5----5-4----4-5---5-4--|----------4-5---------5-4-|
--7-------------7-------------|--7~----------------------|
------------------------------|--------------------------|


                                 Interludio 3                            
  E  S S E  S S E  S S S S E     W                   H.           E  E   
------------------------------|-------------------|---------------------|
------------------------------|-------------------|---------------------|
---------4-------------4------|--9----------------|--L------------L-----|
-----4-5----5-4----4-5---5-4--|--9----------------|--L------------L-----|
--7-------------7-------------|--7----------------|--L------------L--9--|
------------------------------|-------------------|------------------7--|


  W                   H.           E  E     W                 
-------------------|---------------------|-------------------|
-------------------|---------------------|-------------------|
--9----------------|--L------------L-----|--5----------------|
--9----------------|--L------------L-----|--5----------------|
--7----------------|--L------------L--5--|--3----------------|
-------------------|------------------3--|-------------------|


  H.           E  E     W                   W                 
---------------------|-------------------|-------------------|
---------------------|-------------------|-------------------|
--L------------L-----|--9----------------|--L----------------|
--L------------L-----|--9----------------|--L----------------|
--L------------L--9--|--7----------------|--L----------------|
------------------7--|-------------------|-------------------|


    Puente                                                                 
    S      S S S S S S S S S S S E  E     S S S S S S S S S S S S E  E     
|--------------------------------------|---------------------------------||
|--------------------------------------|---------------------------------||
|*-----------------4-------------------|------------4-------------------*||
|*---------4-5-4-5---5-4-5-4-----5--7--|----4-5-4-5---5-4-5-4-----5--7--*||
|---7------------------------7-5-3--5--|--7-------------------7-5-3--5---||
|--------------------------------------|---------------------------------||


  Riff C                                                           
  E      S E  S E  S E  S S S S S    E  S E  S E  S  S E  S  S E   
----------------------------------|-------------------------------|
----------------------------------|-------------------------------|
----------------------------------|-------------------------------|
--9------x-9--x-9--x-9--x-9-9-9-9-|--9--x-9--x-9--5p-4------------|
--7------x-7--x-7--x-7--x-7-7-7-7-|--7--x-7--x-7-------5--3p-2----|
----------------------------------|----------------------------3--|


  E  S E  S E  S E  S S S S S    E  S E  S E  S  S E  S  S E   
------------------------------|-------------------------------|
------------------------------|-------------------------------|
------------------------------|-------------------------------|
--7--x-7--x-7--x-7--x-7-7-7-7-|--7--x-7--x-7--5p-4------------|
--5--x-5--x-5--x-5--x-5-5-5-5-|--5--x-5--x-5-------5--3p-2----|
------------------------------|----------------------------3--|


  E  S E  S E  S E  S S S S S    E  S E  S E  S  S E  S  S E   
------------------------------|-------------------------------|
------------------------------|-------------------------------|
------------------------------|-------------------------------|
--9--x-9--x-9--x-9--x-9-9-9-9-|--9--x-9--x-9--5p-4------------|
--7--x-7--x-7--x-7--x-7-7-7-7-|--7--x-7--x-7-------5--3p-2----|
------------------------------|----------------------------3--|


  Solo 1 Dave Murray                          
  E                  S E  S E  S E  S S S E   
---------------------------------------------|
---------------------------------------------|
---------------------------------------------|
--7------------------x-7--x-7--x-7--x-7-7-7--|
--5------------------x-5--x-5--x-5--x-5-5-5--|
---------------------------------------------|


   T  T  T  T  T  T  T  T  T  T  T  T  T  T  T T T T T T T T T T Q     
----------------------------------------------------------------------|
----------------------------------------------------------------------|
----------------------------------------------------------------------|
----------------------------------------------------------------------|
----------------------------------------------------------------------|
--24-23-22-21-20-19-18-17-16-15-14-13-12-11-10-9-8-7-6-5-4-3-2-1-0----|


  E  S E  S E  S E  S S S S S    E  S E  S E  S  S E  S  S E   
------------------------------|-------------------------------|
------------------------------|-------------------------------|
------------------------------|-------------------------------|
--9--x-9--x-9--x-9--x-9-9-9-9-|--9--x-9--x-9--5p-4------------|
--7--x-7--x-7--x-7--x-7-7-7-7-|--7--x-7--x-7-------5--3p-2----|
------------------------------|----------------------------3--|


  E  S E  S E  S E  S S S S S    E  S E  S E  S  S E  S  S E   
------------------------------|-------------------------------|
------------------------------|-------------------------------|
------------------------------|-------------------------------|
--7--x-7--x-7--x-7--x-7-7-7-7-|--7--x-7--x-7--5p-4------------|
--5--x-5--x-5--x-5--x-5-5-5-5-|--5--x-5--x-5-------5--3p-2----|
------------------------------|----------------------------3--|


  E  S E  S E  S E  S S S S S    E  S E  S E  S  S E  S  S E   
------------------------------|-------------------------------|
------------------------------|-------------------------------|
------------------------------|-------------------------------|
--9--x-9--x-9--x-9--x-9-9-9-9-|--9--x-9--x-9--5p-4------------|
--7--x-7--x-7--x-7--x-7-7-7-7-|--7--x-7--x-7-------5--3p-2----|
------------------------------|----------------------------3--|


  E  S E  S E  S E  S S S S S    E  S E  S E  S  S E  S  S E   
------------------------------|-------------------------------|
------------------------------|-------------------------------|
------------------------------|-------------------------------|
--7--x-7--x-7--x-7--x-7-7-7-7-|--7--x-7--x-7--5p-4------------|
--5--x-5--x-5--x-5--x-5-5-5-5-|--5--x-5--x-5-------5--3p-2----|
------------------------------|----------------------------3--|


  Solo 2 Adrian Smith                                                           
  E                   S E  S E  S E  S S S S S    E  S E  S E  S  S E  S  S E   
-----------------------------------------------|-------------------------------|
-----------------------------------------------|-------------------------------|
-----------------------------------------------|-------------------------------|
--9-------------------x-9--x-9--x-9--x-9-9-9-9-|--9--x-9--x-9--5p-4------------|
--7-------------------x-7--x-7--x-7--x-7-7-7-7-|--7--x-7--x-7-------5--3p-2----|
-----------------------------------------------|----------------------------3--|


  E  S E  S E  S E  S S S S S    E  S E  S E  S  S E  S  S E   
------------------------------|-------------------------------|
------------------------------|-------------------------------|
------------------------------|-------------------------------|
--7--x-7--x-7--x-7--x-7-7-7-7-|--7--x-7--x-7--5p-4------------|
--5--x-5--x-5--x-5--x-5-5-5-5-|--5--x-5--x-5-------5--3p-2----|
------------------------------|----------------------------3--|


  E  S E  S E  S E  S S S S S    E  S E  S E  S  S E  S  S E   
------------------------------|-------------------------------|
------------------------------|-------------------------------|
------------------------------|-------------------------------|
--9--x-9--x-9--x-9--x-9-9-9-9-|--9--x-9--x-9--5p-4------------|
--7--x-7--x-7--x-7--x-7-7-7-7-|--7--x-7--x-7-------5--3p-2----|
------------------------------|----------------------------3--|


  E  S E  S E  S E  S S S S S    E  S E  S E  S  S E  S  S E   
------------------------------|-------------------------------|
------------------------------|-------------------------------|
------------------------------|-------------------------------|
--7--x-7--x-7--x-7--x-7-7-7-7-|--7--x-7--x-7--5p-4------------|
--5--x-5--x-5--x-5--x-5-5-5-5-|--5--x-5--x-5-------5--3p-2----|
------------------------------|----------------------------3--|


  Riff D                                                          
  E      S E  S E  S E  S S S S S    E  S E  S E  S E  S S S S S  
----------------------------------|------------------------------|
----------------------------------|------------------------------|
----------------------------------|------------------------------|
--9------x-9--x-9--x-9--x-9-9-9-9-|--9--x-9--x-9--x-9--x-9-9---5-|
--7------x-7--x-7--x-7--x-7-7-7-7-|--7--x-7--x-7--x-7--x-7-7-7---|
----------------------------------|------------------------------|


  E  S E.  S E.  S E.  S S    S S E  S E  S E  S S. T E  S  
---------------------------|-------------------------------|
---------------------------|-------------------------------|
---------------------------|-------------------------------|
--L----------5-----------9-|--L-x-9--x-9--x-9--x-9----9----|
-----7-5---7-----7-5-----7-|--L-x-7--x-7--x-7--x-7----7----|
-----------------------7---|-------------------------------|


  S S E  S E  S E  S E  S S S    E  S E.  S E.  S E.  S S  
------------------------------|---------------------------|
------------------------------|---------------------------|
------------------------------|---------------------------|
------9--x-9--x-9--x-9------5-|--L----------5-----------9-|
--7-7-7--x-7--x-7--x-7--7-7---|-----7-5---7-----7-5-----7-|
------------------------------|-----------------------7---|


  S S E  S E  S E  S S. T E  S    S S E  S E  S E  S E  S S S  
-------------------------------|------------------------------|
-------------------------------|------------------------------|
-------------------------------|------------------------------|
--L-x-9--x-9--x-9--x-9----9----|------9--x-9--x-9--x-9------5-|
--L-x-7--x-7--x-7--x-7----7----|--7-7-7--x-7--x-7--x-7--7-7---|
-------------------------------|------------------------------|


  E  S E.  S E.  S E.  S S    S S E  S E  S E  S S. T E  S  
---------------------------|-------------------------------|
---------------------------|-------------------------------|
---------------------------|-------------------------------|
--L----------5-----------9-|--L-x-9--x-9--x-9--x-9----9----|
-----7-5---7-----7-5-----7-|--L-x-7--x-7--x-7--x-7----7----|
-----------------------7---|-------------------------------|


                                       Riff E                              
  S S S S S S S S S S S S E  S. T      S      S S S S S S S E  S S S S E   
----------------------------------||--------------------------------------|
----------------------------------||--------------------------------------|
----------------------------------||*-----------------------4-------------|
--9-9-9-9-9-9-9-9-9-9-9-9-9--9----||*---------4-5-4-5-7-5-4----5-4-5-4----|
--7-7-7-7-7-7-7-7-7-7-7-7-7--7----||---7-------------------------------7--|
----------------------------------||--------------------------------------|


  S S S S S S S S E  S S S S E     S S S S S S S S E  S S S S E   
--------------------------------|--------------------------------|
--------------------------------|--------------------------------|
------------------4-------------|------------------4-------------|
------4---4-5-4-5----5-4-5-4----|----4-5-4-5-7-5-4----5-4-5-4----|
--L-7---7--------------------7--|--7--------------------------7--|
--------------------------------|--------------------------------|


                                      Riff F                              
  S S S S S S S S E  S S S S E        S      S S S S S S S E  S S S S E   
---------------------------------||--------------------------------------|
---------------------------------||--------------------------------------|
------------------4-------------*||*-----------------------4-------------|
------4---4-5-4-5----5-4-5-4----*||*---------4-5-4-5-7-5-4----5-4-5-4----|
--L-7---7--------------------7---||---7-------------------------------7--|
---------------------------------||--------------------------------------|


  S S S S S S S S E  S S S S E     S S S S S S S S E  S S S S E   
--------------------------------|--------------------------------|
--------------------------------|--------------------------------|
------------------4-------------|------------------4-------------|
------4---4-5-4-5----5-4-5-4----|----4-5-4-5-7-5-4----5-4-5-4----|
--L-7---7--------------------7--|--7--------------------------7--|
--------------------------------|--------------------------------|


                                 Coro                         
  E.  E.  E.  S S S S S S S      E    S E  S E  S E  S E  E   
-----------------------------||------------------------------|
-----------------------------||------------------------------|
----------------------------*||--9----x-9--x-9--x-9--x-9--9--|
--9---4---5---------5-4-2---*||--9----x-9--x-9--x-9--x-9--9--|
--7---2---3---2-3-2-------5--||--7----x-7--x-7--x-7--x-7--7--|
-----------------------------||------------------------------|


  E  S E  S E  S E  S E  E     E  S E  S E  S E  S E  E   
----------------------------|----------------------------|
----------------------------|----------------------------|
--5--x-5--x-5--x-5--x-5--5--|--7--x-7--x-7--x-7--x-7--7--|
--5--x-5--x-5--x-5--x-5--5--|--7--x-7--x-7--x-7--x-7--7--|
--3--x-3--x-3--x-3--x-3--3--|--5--x-5--x-5--x-5--x-5--5--|
----------------------------|----------------------------|


  E  S E  S E  S E  S E  E     E  S E  S E  S E  S E  E   
----------------------------|----------------------------|
----------------------------|----------------------------|
--9--x-9--x-9--x-9--x-9--9--|--9--x-9--x-9--x-9--x-9--9--|
--9--x-9--x-9--x-9--x-9--9--|--9--x-9--x-9--x-9--x-9--9--|
--7--x-7--x-7--x-7--x-7--7--|--7--x-7--x-7--x-7--x-7--7--|
----------------------------|----------------------------|


                                                            Interludio 4      
  E  S E  S E  S E  S E  E     E  S E  S E  S E  S E  E     W                 
----------------------------|----------------------------|-------------------|
----------------------------|----------------------------|-------------------|
--5--x-5--x-5--x-5--x-5--5--|--7--x-7--x-7--x-7--x-7-----|--9----------------|
--5--x-5--x-5--x-5--x-5--5--|--7--x-7--x-7--x-7--x-7-----|--9----------------|
--3--x-3--x-3--x-3--x-3--3--|--5--x-5--x-5--x-5--x-5--9--|--7----------------|
----------------------------|-------------------------7--|-------------------|


  H.           E  E     W                   H.           E  E   
---------------------|-------------------|---------------------|
---------------------|-------------------|---------------------|
--L------------L-----|--7----------------|--L------------L-----|
--L------------L-----|--7----------------|--L------------L-----|
--L------------L--7--|--5----------------|--L------------L--5--|
------------------5--|-------------------|------------------3--|


  W                   H.           E  E     W                 
-------------------|---------------------|-------------------|
-------------------|---------------------|-------------------|
--5----------------|--L------------L-----|--7----------------|
--5----------------|--L------------L-----|--7----------------|
--3----------------|--L------------L--7--|--5----------------|
-------------------|------------------5--|-------------------|


                        Outro                                 
  H.           E  E     W                   W                 
---------------------|-------------------|-------------------|
---------------------|-------------------|-------------------|
--L------------L-----|--9----------------|--L----------------|
--L------------L-----|--9----------------|--L----------------|
--L------------L--9--|--7----------------|--L----------------|
------------------7--|-------------------|-------------------|


  W                   W                   W                   W                 
-------------------|-------------------|-------------------|-------------------|
-------------------|-------------------|-------------------|-------------------|
--L----------------|--L----------------|--L----------------|--L----------------|
--L----------------|--L----------------|--L----------------|--L----------------|
--L----------------|--L----------------|--L----------------|--L----------------|
-------------------|-------------------|-------------------|-------------------|


  W                   W                   W                   W                 
-------------------|-------------------|-------------------|-------------------|
-------------------|-------------------|-------------------|-------------------|
--L----------------|--L----------------|--L----------------|--L----------------|
--L----------------|--L----------------|--L----------------|--L----------------|
--L----------------|--L----------------|--L----------------|--L----------------|
-------------------|-------------------|-------------------|-------------------|


  W                   W                   S S S S Q    S S S S Q       Q       
-------------------|-------------------|----------------------------|--------||
-------------------|-------------------|----------------------------|--------||
--L----------------|--L----------------|----------------------------|--------||
--L----------------|--L----------------|--9-9-9-9-9----9-9-9-9-9----|--L\----||
--L----------------|--L----------------|--7-7-7-7-7----7-7-7-7-7----|--L\----||
-------------------|-------------------|----------------------------|--------||




Voice Melody:
                             
Bruce Dickinson

          Intro                                                     
     S    W                   W                   W                 
E||----|-------------------|-------------------|-------------------|
B||----|-------------------|-------------------|-------------------|
G||----|-------------------|-------------------|-------------------|
D||----|-------------------|-------------------|-------------------|
A||----|-------------------|-------------------|-------------------|
E||----|-------------------|-------------------|-------------------|


  Verso Riff 1                                        
                  I'm     wai ting       in  my  cold 
  H.           E  E       E   Q    Q     E   E   E    
----------------------|------------------------------|
----------------------|--12--12---------10------10---|
------------------9---|---------------------12-------|
----------------------|------------------------------|
----------------------|------------------------------|
----------------------|------------------------------|


       cell        when   the     bell     be gins    to chi  
   E   Q.     Q    S    S E       Q    E   E  E.   S  E  E    
------------------------------|------------------------------|
---L--12----------------------|--12--------------------------|
-------------------9----L-9---|-----------12--9------12--7---|
------------------------------|------------------------------|
------------------------------|------------------------------|
------------------------------|------------------------------|


  me                Re     flec ting       on  my  past 
  H        S Q    S E      E    Q    Q     E   E   E    
-----------------------|-------------------------------|
-----------------------|--12---12---------10------10---|
--9--------L--------9--|----------------------12-------|
-----------------------|-------------------------------|
-----------------------|-------------------------------|
-----------------------|-------------------------------|


       life        and it     doe sn't    have    much   time  
   E   Q.     Q    E   E      E   Q    E  E.   S  S    S E     
--------------------------|-----------------------------------|
---L--12------------------|--12--12---------------------------|
-------------------9---9--|---------------9------12----L-9----|
--------------------------|-----------------------------------|
--------------------------|-----------------------------------|
--------------------------|-----------------------------------|


                  'Cause    at     5      o'  clock        they 
  H        Q    S T      T  E      E.  S  E   E    Q.      E    
---------------------------16--|-------------------------------|
-------------------------------|-------------------------------|
--L---------------9------L-----|--17-----17--17----------------|
-------------------------------|--------------------------14---|
-------------------------------|-------------------------------|
-------------------------------|-------------------------------|


   take me    to the Ga  llows Po le                         
   E    Q     S  S   E   Q     S  S     H.            E.  S  
------------------------------------|-----------------------|
------------------------------------|-----------------------|
-------16-----------14--16----14-16-|---L-------------L-----|
--17---------17-17------------------|-----------------------|
------------------------------------|-----------------------|
------------------------------------|-----------------------|


                   The    sands   of  time       for 
  H.           E   E      E.   S  E   Q.     E   E   
----------------------|-----------------------------|
------------------12--|--13------13--13---------13--|
----------------------|-----------------------------|
----------------------|-----------------------------|
----------------------|-----------------------------|
----------------------|-----------------------------|


   me       are run ning  low,                                           
   Q    E   E   E   Q     E       W                    W                 
------------------------------|--------------------|--------------------|
--15-------13--15--13----12---|---L----------------|---L----------------|
------------------------------|--------------------|--------------------|
------------------------------|--------------------|--------------------|
------------------------------|--------------------|--------------------|
------------------------------|--------------------|--------------------|


   Riff A                                                      
   W                    W                    W                 
--------------------|--------------------|--------------------|
---L----------------|---L----------------|---L----------------|
--------------------|--------------------|--------------------|
--------------------|--------------------|--------------------|
--------------------|--------------------|--------------------|
--------------------|--------------------|--------------------|


                  ru ning    loo                  ooow              
   Q    H         S  E.      W                    W                 
-------------------------|--------------------|--12----------------|
---L-------------15-13---|--12----------------|--------------------|
-------------------------|--------------------|--------------------|
-------------------------|--------------------|--------------------|
-------------------------|--------------------|--------------------|
-------------------------|--------------------|--------------------|


                                                   Riff B            
                       ye         ah                                 
  W                    H          Q.      S S      W                 
--L----------------|--19s--------12-------L---||--------------------|
-------------------|--------------------------||--------------------|
-------------------|--------------------------||*-------------------|
-------------------|--------------------------||*-------------------|
-------------------|--------------------------||--------------------|
-------------------|--------------------------||--------------------|


  W                   W                   W                   
-------------------|-------------------|--------------------||
-------------------|-------------------|--------------------||
-------------------|-------------------|-------------------*||
-------------------|-------------------|-------------------*||
-------------------|-------------------|--------------------||
-------------------|-------------------|--------------------||


  Verso Riff 2                                                     
                When the    priest comes to read me the last rites 
  E             S    T   T  E      S     S  E    S  S   E    E     
---------------19---19---L-19-----17----17-17---15-15--17---19----|
------------------------------------------------------------------|
------------------------------------------------------------------|
------------------------------------------------------------------|
------------------------------------------------------------------|
------------------------------------------------------------------|


     I  take a  look through    the bars at the last sights 
  S  S  S    S  E    T       T  S   E    S  S   E    E      
--L-19-19---19-19---17-------L-17--17---15-15--17---19-----|
-----------------------------------------------------------|
-----------------------------------------------------------|
-----------------------------------------------------------|
-----------------------------------------------------------|
-----------------------------------------------------------|


      Of a     world    that has gone ve ry wrong for    me                  
  E   S  T  T  S     S  S    S   E    S  S  E     E      E.  H.           S  
--L--19-19--L-19-----L-17---17--17---15-15-17----19--|--19------------------|
-----------------------------------------------------|----------------------|
-----------------------------------------------------|----------------------|
-----------------------------------------------------|----------------------|
-----------------------------------------------------|----------------------|
-----------------------------------------------------|----------------------|


      Can it be  that    there's    some sort of e   rror 
  E   S   S  E   T    T  T       T  E    S    S  E   E    
-----19--19-19--17----L-17-------L-17---15---15-17--19---|
---------------------------------------------------------|
---------------------------------------------------------|
---------------------------------------------------------|
---------------------------------------------------------|
---------------------------------------------------------|


      Hard to stop the sur    moun ting te  rror 
  E   S    S  E    S   T   T  E    E    E   E    
--L--19---19-19---17--17---L-17---15---17--19---|
------------------------------------------------|
------------------------------------------------|
------------------------------------------------|
------------------------------------------------|
------------------------------------------------|


      Is it rea lly the end of    some cra zy     dream              
  E   S  S  E   S   S   E   T  T  S    E   E      H        H         
--L--19-19-19--17--17--17--15--L-15---17--19--|--19-----------------|
----------------------------------------------|---------------------|
----------------------------------------------|---------------------|
----------------------------------------------|---------------------|
----------------------------------------------|---------------------|
----------------------------------------------|---------------------|


  Verso Riff 3                                                     
                Some    bo dy    please tell me that I'm drea ming 
  S             T    T  S  T  T  E      S    S  E    E   E    E    
---------------19----L-19-19--L-19-----17---17-17---15--17---19---|
------------------------------------------------------------------|
------------------------------------------------------------------|
------------------------------------------------------------------|
------------------------------------------------------------------|
------------------------------------------------------------------|


     It's not so ea  sy to stop from screa ming    The 
  S  S    S   S  E   S  S  E    E    E     T    T  S   
--L-19---19--19-19--17-17-17---15---17----19----L-19--|
------------------------------------------------------|
------------------------------------------------------|
------------------------------------------------------|
------------------------------------------------------|
------------------------------------------------------|


   words es cape me    when I   try to     speak                
   E     S  E    Q     S    E   E   E      E.   H.           S  
--19----19-19---17----17---17--15--17--|--19-------------------|
---------------------------------------|-----------------------|
---------------------------------------|-----------------------|
---------------------------------------|-----------------------|
---------------------------------------|-----------------------|
---------------------------------------|-----------------------|


      Tears flow but    why    am  I   cry ing 
  E   E     E    T   T  T   T  E   E   E   E   
-----19----19---17---L-17---L-17--15--17--19--|
----------------------------------------------|
----------------------------------------------|
----------------------------------------------|
----------------------------------------------|
----------------------------------------------|


   Af  ter all I'm not a  fraid of  dy  ing 
   E   S   E   S   S   S  E     E   E   E   
--19--19--19--17--17--17-17----15--17--19--|
-------------------------------------------|
-------------------------------------------|
-------------------------------------------|
-------------------------------------------|
-------------------------------------------|


     Don't    be lieve    that   there ne ver is an  en                nd      
  S  T     T  S  T     T  E.  S  E     S  S   S  E   S    H        E   Q.      
----19-----L-19-19-----L-19-----17----17-15--17-19--19-|--L--------L--15------|
-------------------------------------------------------|----------------------|
-------------------------------------------------------|----------------------|
-------------------------------------------------------|----------------------|
-------------------------------------------------------|----------------------|
-------------------------------------------------------|----------------------|



  Verso Riff 4                                                           
                As the    guards    march    me out to the    court yard 
  E             S  T   T  S      S  T     T  S  E   S  T   T  E     E    
---------------19-19---L-19------L-17-----L-17-17--15-15---L-17----19---|
------------------------------------------------------------------------|
------------------------------------------------------------------------|
------------------------------------------------------------------------|
------------------------------------------------------------------------|
------------------------------------------------------------------------|


      Some    bo dy    cries from a  cell "God    be    with    you". 
   S  T    T  S  T  T  E     S    S  E    T    T  T  T  T    T  E.    
---L-19----L-19-19--L-19----17---17-17---15----L-15--L-17----L-19----|
---------------------------------------------------------------------|
---------------------------------------------------------------------|
---------------------------------------------------------------------|
---------------------------------------------------------------------|
---------------------------------------------------------------------|


     If    there's    a  God then    why  has he let me     go?                
  S  T  T  T       T  S  E   T    T  E.   S   S  E   E      H        H         
--L-19--L-19-------L-19-19--17----L-17---15--15-17--19--|--24-----------------|
--------------------------------------------------------|---------------------|
--------------------------------------------------------|---------------------|
--------------------------------------------------------|---------------------|
--------------------------------------------------------|---------------------|
--------------------------------------------------------|---------------------|


      As I     walk all my life drifts be fore me  
  E   S  T  T  E    S   S  E    S      S  E    E   
-----19-19--L-19---17--17-17---15-----15-17---19--|
--------------------------------------------------|
--------------------------------------------------|
--------------------------------------------------|
--------------------------------------------------|
--------------------------------------------------|


   Though    the end is  near I'm    not so  rry 
   S      S  S   E   E   E    T   T  E   E   E   
--19------L-19--19--17--17---15---L-15--17--19--|
------------------------------------------------|
------------------------------------------------|
------------------------------------------------|
------------------------------------------------|
------------------------------------------------|


   Catch my  soul it's    will ing to fly a      way                
   E     E   E    T    T  E    E   S  E   E      H        H         
--19----19--19---17----L-17---17--15-17--19--|--24-----------------|
---------------------------------------------|---------------------|
---------------------------------------------|---------------------|
---------------------------------------------|---------------------|
---------------------------------------------|---------------------|
---------------------------------------------|---------------------|


   Mark my  words be lieve my    soul lives on 
   E    E   E.    S  E     T  T  E    E     S  
--19---19--19----19-17----17--L-15---17----19-|
----------------------------------------------|
----------------------------------------------|
----------------------------------------------|
----------------------------------------------|
----------------------------------------------|


       Don't wo  rry now that I   have    gone 
   E   E     E   E   E   S    E   S    S  S    
---L--19----19--17--17--17---15--17----L-19---|
----------------------------------------------|
----------------------------------------------|
----------------------------------------------|
----------------------------------------------|
----------------------------------------------|


       I've    gone be yond to  see the    truth                
   E   T    T  E.   S  E.   E   E   E      E.   H.           S  
---L--19----L-19---19-17---17--15--14--|-----------------------|
---------------------------------------|--15-------------------|
---------------------------------------|-----------------------|
---------------------------------------|-----------------------|
---------------------------------------|-----------------------|
---------------------------------------|-----------------------|


      When    you    know that    your    time is  close at hand 
  E   T    T  T   T  E    T    T  T    T  E    E   E     S  S    
-----19----L-19---L-19---17----L-17----L-17---15--15----17-15---|
----------------------------------------------------------------|
----------------------------------------------------------------|
----------------------------------------------------------------|
----------------------------------------------------------------|
----------------------------------------------------------------|


     may be then    you'll    be gin to  un  ders    tand 
  S  E   S  S    S  T      T  S  E   E   E   T    T  S    
--L-19--19-19----L-17------L-17-17--15--15--17----L-15---|
---------------------------------------------------------|
---------------------------------------------------------|
---------------------------------------------------------|
---------------------------------------------------------|
---------------------------------------------------------|


             Life    down    there       is  just a   strange i   lluu 
   E.  Q     S    S  S    S  Q     S     E   E    E   Q.      E   E    
---L--------18----L-17----L-15-----L-|--15--17---15----------15--14---|
-------------------------------------|---------------19---------------|
-------------------------------------|--------------------------------|
-------------------------------------|--------------------------------|
-------------------------------------|--------------------------------|
-------------------------------------|--------------------------------|


   Interludio 2                                                      
                siooo                              ooon              
   H            H            W                     W                 
---Ls----------12--------|---Ls----------------|--10----------------|
-------------------------|---------------------|--------------------|
-------------------------|---------------------|--------------------|
-------------------------|---------------------|--------------------|
-------------------------|---------------------|--------------------|
-------------------------|---------------------|--------------------|



   Ye      ee  ah      ah     ahhh!                   Ha    llowed Be    Thy   
   Q.      E   Q.      E      H         Q.     E      Q     Q      Q     Q     
--19------15--17------15--|--19---------L---------|--19----17-----15----17----|
--------------------------|-----------------------|---------------------------|
--------------------------|-----------------------|---------------------------|
--------------------------|-----------------------|---------------------------|
--------------------------|-----------------------|---------------------------|
--------------------------|-----------------------|---------------------------|


   Name!!!                 Ye      ee  ah      ah     ahhh!               
   H         Q.     E      Q.      E   Q.      E      H        Q.     E   
--19---------L---------|--19------15--17------15--|--19--------L---------|
-----------------------|--------------------------|----------------------|
-----------------------|--------------------------|----------------------|
-----------------------|--------------------------|----------------------|
-----------------------|--------------------------|----------------------|
-----------------------|--------------------------|----------------------|


                               Interludio 4                                 
   Ha    llowed Be    Thy      Naaa                                    aaa  
   Q     Q      Q     Q        W                     H.            E   E    
--19----17-----15----17----|--19s----------------|---L-------------L--17s--|
---------------------------|---------------------|-------------------------|
---------------------------|---------------------|-------------------------|
---------------------------|---------------------|-------------------------|
---------------------------|---------------------|-------------------------|
---------------------------|---------------------|-------------------------|


   aaa                                     aaa     me!!!             
   W                     H.            E   E       W                 
--15s----------------|---L-------------L--14s--|--12----------------|
---------------------|-------------------------|--------------------|
---------------------|-------------------------|--------------------|
---------------------|-------------------------|--------------------|
---------------------|-------------------------|--------------------|
---------------------|-------------------------|--------------------|


                                                Oh                 
   H        H           W                   E   H          Q.      
---L-----------------|-------------------|-----10s---------L------|
---------------------|-------------------|------------------------|
---------------------|-------------------|------------------------|
---------------------|-------------------|------------------------|
---------------------|-------------------|------------------------|
---------------------|-------------------|------------------------|


   Outro                                                      
   oooh                                                       
   W                    W                   W                 
--12----------------|---L----------------|-------------------|
--------------------|--------------------|-------------------|
--------------------|--------------------|-------------------|
--------------------|--------------------|-------------------|
--------------------|--------------------|-------------------|
--------------------|--------------------|-------------------|




Duration Legend
---------------
W - whole
H - half
Q - quarter
E - 8th
S - 16th
T - 32nd
X - 64th
. - note dotted
|-n-|  - n-tuplets


Tablature Legend
----------------
L - tied note
x - dead note
g - grace note
(n) - ghost note
> - accentuded note
NH - natural harmonic
AH - artificial harmonic
TH - tapped harmonic
SH - semi harmonic
PH - pitch harmonic
h - hammer on
p - pull off
b - bend
br - bendRelease
pb - preBend
pbr - preBendRelease
brb - bendReleaseBend
\n/ - tremolo bar dip
\n - tremolo bar dive
-/n - tremolo bar Release up
/n\ - tremolo bar inverted dip
/n - tremolo bar return
-\n - tremolo bar Release down
S - shift slide
s - legato slide
/ -  slide into from below or out of upwards
\ -  slide into from above or out of downwards
~ - vibrato
W - wide vibrato
tr - trill
TP - tremolo picking
T - tapping
S - slap
P - pop
< - fade in
^ - brush up
v - brush down

            
            
Suggest correction
Creating personal tab
Creating personal tab
You can edit any tab online and save it as your Personal.

You can edit, replace or remove any tab part or add personal notes – all changes will be seen only by you.

Personal tabs can be accessed anytime from any device, even offline.
Learn more »
comments
print report bad tab
guest
You may want to rate the tab now too:
select rating
Wanna post a correction for this tab? Suggest correction