Oops, an error
Loading. Please wait.

Holy Smoke Tab

version 2
version 2

Solo

Whole song

Interactive

1,475 views 1 this week
1 commentread comment
1 2 3 4 5
excellent!
x 1
add to favorites
launch autoscroll
font size
0
reset
how to read this tab
guitar tuner
Tab Pro tools
  • play this tab
  • loop segment
  • change instrument
  • show fretboard
  • metronome
Autoscroll
slow
fast
+/-
esc
set tempo
stop
Contributor
Difficulty
intermediate
BY BLOODBROTHERS 84

TABBED BY EAR SO SOME PARTS NOT EXACTLY PLAYED LIKE JANICK

Holy Smoke solo.

JANICK GERS SOLO


Slide up           = /
Slide Down         = \
Bend UP            = b
Bend up then Down  = bd
DIVE WHAMMY BAR    = ^^^^


E------------------------------------------|----------------|
B--------PLAY NATURAL HARMONICS------------|-------------2--|
G-3-3-3-4-4-4-5-5-5-7-7-7-9-9-9-1-12-12-12-|-------------2--|
D------------------------------------------|-2-0-2-0-2-0-0--|
A------------------------------------------|----------------|
E------------------------------------------|----------------|

E------------------------------------------|
B--------PLAY NATURAL HARMONICS------------|
G-3-3-3-4-4-4-5-5-5-7-7-7-9-9-9-12-12-12-12|
D------------------------------------------|
E------------------------------------------|

E----------------------------------|--HEAVY VIBRATO--------|
B----------------------------------|-----------------------|
G--7-5-7-5-------------------------|-7b-7b-7b-7bd-5-7-5-2-4|
D----------7-5-7-5---------7-5-7-5-|-----------------------|
A------------------7-5-7-5---------|-----------------------|
E----------------------------------|-----------------------|

E------------------------------------------|
B-22b-22b-22b-22b-22b-22b-22b-22b-22b-22b--|
G------------------------------------------|
D------------------------------------------|
A------------------------------------------|
E------------------------------------------|

E----------HAMMERONS AND PULLOFFS---------------|
B-12-10-12-10-10-8-10-8-8-7-8-7-7-5-7-8-10-8-10-|
G-----------------------------------------------|
D-----------------------------------------------|
A-----------------------------------------------|
E-----------------------------------------------|

                                         DIVE WHAMMY BAR
E--------------------------------|-------------------------|
B-12-10-12-10\8-10-8-10-8\7-8/10-|---15b-----0^^^^---------|
G--------------------------------|---14b-14b-0^^^^---------|
D--------------------------------|-------------------------|
A--------------------------------|-------------------------|
E--------------------------------|-------------------------|
comments
We did not receive enough feedback on this tab! Please rate:
print report bad tab
1 2 3 4 5
1 comment total.
0 reply
/zombieVSghoul\ wrote on April 18 2012, 06:55 pm

this is sweet stuff bra

I want to post or [tab]
guest
You may want to rate the tab now too:
select rating
Please do not post tabs as comments. Select "correction" instead!