Oops, an error
Loading. Please wait.

If Eternity Should Fail bass

version 1
version 1

Whole song

Interactive

1,612 views 9 this week
no commentswrite comment
1 2 3 4 5
x 4
add to favorites
×
Save as Personal and add changes to this tab that will be seen only by you. Learn more ›
×
You can save this tab as Personal to edit and correct it or add notes. All changes will be seen only by you. Learn more »
launch autoscroll
font size
0
reset
guitar tuner
edit
Autoscroll
slow
fast
+/-
esc
set tempo
stop
                            If Eternity Should Fail                             


                                  Iron Maiden

Steve Harris



                              Riff A                       
     S    W                   Q      E  S S E  S S E  S S  
G||----|-------------------|------------------------------|
D||----|-------------------|--7---------------------------|
A||----|-------------------|--5------5--5-5-5--5-5-5--5-5-|
D||----|-------------------|------------------------------|


  E  S S E  S S E  S S E  S S    E  S S E  S S E  S S E  S S  
------------------------------|------------------------------|
------------------------------|------------------------------|
--5--5-5-5--5-5-5--5-5-5--5-5-|--5--5-5-5--5-5-5--5-5-5--5-5-|
------------------------------|------------------------------|


  E  S S E  S S E  E  E  E     Q    E  S S E  S S E  S S  
----------------------------|----------------------------|
----------------------------|--7-------------------------|
--5--5-5-5--5-5-5--------3--|--5----5--5-5-5--5-5-5--5-5-|
-------------------3--5-----|----------------------------|


  E  S S E  S S E  S S E  S S    E  S S E  S S E  S S E  S S  
------------------------------|------------------------------|
------------------------------|------------------------------|
--5--5-5-5--5-5-5--5-5-5--5-5-|--5--5-5-5--5-5-5--5-5-5--5-5-|
------------------------------|------------------------------|


                               Verso A                       
  E  S S E  S S E  E  E  E     Q       E  S S E  S S E  S S  
----------------------------|-------------------------------|
----------------------------|--7----------------------------|
--5--5-5-5--5-5-5--------3--|--5-------5--5-5-5--5-5-5--5-5-|
-------------------3--5-----|-------------------------------|


  E  S S E  S S E  S S E  S S    E  S S E  S S E  S S E  S S  
------------------------------|------------------------------|
------------------------------|------------------------------|
--5--5-5-5--5-5-5--5-5-5--5-5-|--5--5-5-5--5-5-5--5-5-5--5-5-|
------------------------------|------------------------------|


  E  S S E  S S E  E  E  E     Q    E  S S E  S S E  S S  
----------------------------|----------------------------|
----------------------------|--7-------------------------|
--5--5-5-5--5-5-5--------3--|--5----5--5-5-5--5-5-5--5-5-|
-------------------3--5-----|----------------------------|


  E  S S E  S S E  S S E  S S    E  S S E  S S E  S S E  S S  
------------------------------|------------------------------|
------------------------------|------------------------------|
--5--5-5-5--5-5-5--5-5-5--5-5-|--5--5-5-5--5-5-5--5-5-5--5-5-|
------------------------------|------------------------------|


                               Puente                       
  E  S S E  S S E  E  E  E     Q      E  S S E  S S E  S S  
----------------------------|------------------------------|
----------------------------|--7---------------------------|
--5--5-5-5--5-5-5--------3--|--5------5--5-5-5--5-5-5--5-5-|
-------------------3--5-----|------------------------------|


  E  S S E  S S E  S S E  S S    E  S S E  S S E  S S E  S S  
------------------------------|------------------------------|
------------------------------|------------------------------|
--5--5-5-5--5-5-5--5-5-5--5-5-|--5--5-5-5--5-5-5--5-5-5--5-5-|
------------------------------|------------------------------|


                               Verso B                       
  E  S S E  S S E  E  E  E     Q       E  S S E  S S E  S S  
----------------------------|-------------------------------|
-------------------------5--|--7----------------------------|
--5--5-5-5--5-5-5--------3--|--5-------5--5-5-5--5-5-5--5-5-|
-------------------3--5-----|-------------------------------|


  E  S S E  S S E  S S E  S S    E  S S E  S S E  S S E  S S  
------------------------------|------------------------------|
------------------------------|------------------------------|
--5--5-5-5--5-5-5--5-5-5--5-5-|--5--5-5-5--5-5-5--5-5-5--5-5-|
------------------------------|------------------------------|


  E  S S E  S S E  E  E  E     Q    E  S S E  S S E  S S  
----------------------------|----------------------------|
----------------------------|--7-------------------------|
--5--5-5-5--5-5-5--------3--|--5----5--5-5-5--5-5-5--5-5-|
-------------------3--5-----|----------------------------|


  E  S S E  S S E  S S E  S S    E  S S E  S S E  S S E  S S  
------------------------------|------------------------------|
------------------------------|------------------------------|
--5--5-5-5--5-5-5--5-5-5--5-5-|--5--5-5-5--5-5-5--5-5-5--5-5-|
------------------------------|------------------------------|


                               Pre-Coro                       
  E  S S E  S S E  E  E  E     Q        E  S S E  S S E  S S  
----------------------------|--------------------------------|
----------------------------|--3-----------------------------|
--5--5-5-5--5-5-5-----------|--1--------1--1-1-1--1-1-1--1-1-|
-------------------3--5--7--|--------------------------------|


  E  S S E  S S E  S S E  S S    E  S S E  S S E  S S E  S S  
------------------------------|------------------------------|
------------------------------|------------------------------|
--1--1-1-1--1-1-1--1-1-1--1-1-|--0--0-0-0--0-0-0--0-0-0--0-0-|
------------------------------|------------------------------|


  E  S S E  S S E  S S E  S S    Q    E  S S E  S S E  S S  
------------------------------|----------------------------|
------------------------------|--3-------------------------|
--0--0-0-0--0-0-0--0-0-0--0-0-|--1----1--1-1-1--1-1-1--1-1-|
------------------------------|----------------------------|


  E  S S E  S S E  S S E  S S    E  S S E  E  E  S S E  E   
------------------------------|----------------------------|
------------------------------|----------------------------|
--1--1-1-1--1-1-1--1-1-1--1-1-|--0--0-0-0--0--0--0-0-0--0--|
------------------------------|----------------------------|


                               Coro                      
  E  S S E  E  E   E  E  E     Q    E  S S E  S S E  E   
----------------------------|--7------------------------|
-----7-7-5--3---------------|--7------------------------|
--0-------------------------|--5----5--5-5-5--5-5-5-----|
---------------2s--5--3--2--|------------------------7--|


  Q    E  S S E  S S E  S S    Q    E  E  E   Q    E   
--5-------------------------|-------------------------|
--5-------------------------|--3----------------------|
--3----3--3-3-3--3-3-3------|--1----1--------------5--|
------------------------3-3-|----------3--3S--5-------|


  Q    E  S S E  S S E  E     Q    E  S S E  S S E  E   
--7------------------------|--7------------------------|
--7------------------------|--7------------------------|
--5----5--5-5-5--5-5-5-----|--5----5--5-5-5--5-5-5-----|
------------------------7--|------------------------7--|


  Q    E  S S E  S S E  S S    Q    E  E  E   Q    S S  
--5-------------------------|--------------------------|
--5-------------------------|--3-----------------------|
--3----3--3-3-3--3-3-3------|--1----1--------------5-5-|
------------------------3-3-|----------3--3S--5--------|


  E  S S E  S S E  S S E  S S    Q    E  S S E  S S E  E   
--7---------------------------|--7------------------------|
--7---------------------------|--7------------------------|
--5--5-5-5--5-5-5--5-5-5--5-5-|--5----5--5-5-5--5-5-5-----|
------------------------------|------------------------7--|


  Q    E  S S E  S S E  S S    Q    E  E  E   Q    S S  
--5-------------------------|----------------------7-7-|
--5-------------------------|--3-----------------------|
--3----3--3-3-3--3-3-3------|--1----1------------------|
------------------------3-3-|----------3--3S--5--------|


  Q    E  S S E  S S E  S S    Q    E  S S E  S S E  S S  
--7-------------------------|--7-------------------------|
--7-------------------------|--7-------------------------|
--5----5--5-5-5--5-5-5--5-5-|--5----5--5-5-5--5-5-5--0-0-|
----------------------------|----------------------------|


  Q    E  S S E  S S E  E     Q    E  E  E   Q    S S  
--5------------------------|--------------------------|
--5------------------------|--3-----------------------|
--3----3--3-3-3--3-3-3-----|--1----1--------------5-5-|
------------------------3--|----------3--3S--5--------|


                             Riff A                           
  Q    E  S S E  S S Q       E      S S E  S S E  S S E  S S  
--7-----------------------|----------------------------------|
--7-----------------------|--7-------------------------------|
--5----5--5-5-5--5-5-5----|--5------5-5-5--5-5-5--5-5-5--5-5-|
--------------------------|----------------------------------|


  E  S S E  S S E  S S E  S S    E  S S E  S S E  S S E  S S  
------------------------------|------------------------------|
------------------------------|------------------------------|
--5--5-5-5--5-5-5--5-5-5--5-5-|--5--5-5-5--5-5-5--5-5-5--5-5-|
------------------------------|------------------------------|


                               Verso A                       
  E  S S E  S S E  E  E  E     Q       E  S S E  S S E  S S  
----------------------------|-------------------------------|
-------------------------5--|--7----------------------------|
--5--5-5-5--5-5-5--------3--|--5-------5--5-5-5--5-5-5--5-5-|
-------------------5--7-----|-------------------------------|


  E  S S E  S S E  S S E  S S    E  S S E  S S E  S S E  S S  
------------------------------|------------------------------|
------------------------------|------------------------------|
--5--5-5-5--5-5-5--5-5-5--5-5-|--5--5-5-5--5-5-5--5-5-5--5-5-|
------------------------------|------------------------------|


  E  S S E  S S E  E  E  E     Q    E  S S E  S S E  S S  
----------------------------|----------------------------|
----------------------------|--7-------------------------|
--5--5-5-5--5-5-5--------3--|--5----5--5-5-5--5-5-5--5-5-|
-------------------3--5-----|----------------------------|


  E  S S E  S S E  S S E  S S    E  S S E  S S E  S S E  S S  
------------------------------|------------------------------|
------------------------------|------------------------------|
--5--5-5-5--5-5-5--5-5-5--5-5-|--5--5-5-5--5-5-5--5-5-5--5-5-|
------------------------------|------------------------------|


                                Puente                       
  E  S S E  S S E  E   Q        Q      E  S S E  S S E  S S  
-----------------------------|------------------------------|
-----------------------------|--7---------------------------|
--5--5-5-5--5-5-5--5---------|--5------5--5-5-5--5-5-5--5-5-|
----------------------10\----|------------------------------|


  E  S S E  S S E  S S E  S S    E  S S E  S S E  S S E  S S  
------------------------------|------------------------------|
------------------------------|------------------------------|
--5--5-5-5--5-5-5--5-5-5--5-5-|--5--5-5-5--5-5-5--5-5-5--5-5-|
------------------------------|------------------------------|


                               Verso B                       
  E  S S E  S S E  E  E  E     Q       E  S S E  S S E  S S  
----------------------------|-------------------------------|
-------------------------5--|--7----------------------------|
--5--5-5-5--5-5-5--------3--|--5-------5--5-5-5--5-5-5--5-5-|
-------------------3--5-----|-------------------------------|


  E  S S E  S S E  S S E  S S    E  S S E  S S E  S S E  S S  
------------------------------|------------------------------|
------------------------------|------------------------------|
--5--5-5-5--5-5-5--5-5-5--5-5-|--5--5-5-5--5-5-5--5-5-5--5-5-|
------------------------------|------------------------------|


  E  S S E  S S E  E  E  E     Q    E  S S E  S S E  S S  
----------------------------|----------------------------|
----------------------------|--7-------------------------|
--5--5-5-5--5-5-5--------3--|--5----5--5-5-5--5-5-5--5-5-|
-------------------3--5-----|----------------------------|


  E  S S E  S S E  S S E  S S    E  S S E  S S E  S S E  S S  
------------------------------|------------------------------|
------------------------------|------------------------------|
--5--5-5-5--5-5-5--5-5-5--5-5-|--5--5-5-5--5-5-5--5-5-5--5-5-|
------------------------------|------------------------------|


                                Pre-Coro                       
  E  S S E  S S E  E   E  E     Q        E  S S E  S S E  S S  
-----------------------------|--------------------------------|
-----------------------------|--3-----------------------------|
--5--5-5-5--5-5-5--5s--3--0--|--1--------1--1-1-1--1-1-1--1-1-|
-----------------------------|--------------------------------|


  E  S S E  S S E  S S E  S S    E  S S E  S S E  S S E  S S  
------------------------------|------------------------------|
------------------------------|------------------------------|
--1--1-1-1--1-1-1--1-1-1--1-1-|--0--0-0-0--0-0-0--0-0-0--0-0-|
------------------------------|------------------------------|


  E  S S E  S S E  S S E  S S    Q    E  S S E  S S E  S S  
------------------------------|----------------------------|
------------------------------|--3-------------------------|
--0--0-0-0--0-0-0--0-0-0--0-0-|--1----1--1-1-1--1-1-1--1-1-|
------------------------------|----------------------------|


  E  S S E  S S E  S S E  S S    E  S S E  S S E  E  S S E   
------------------------------|-----------------------------|
------------------------------|-----------------------------|
--1--1-1-1--1-1-1--1-1-1--1-1-|--0--0-0-0--0-0-0--0--0-0-0--|
------------------------------|-----------------------------|


                               Coro                      
  E  S S E  E  E   E  E  E     Q    E  S S E  S S E  E   
----------------------------|--7------------------------|
-----7-7-5--3---------------|--7------------------------|
--0-------------------------|--5----5--5-5-5--5-5-5-----|
---------------2s--5--3--2--|------------------------7--|


  Q    E  S S E  S S E  S S    Q    E  E  E   Q    S S  
--5-------------------------|----------------------7-7-|
--5-------------------------|--3-----------------------|
--3----3--3-3-3--3-3-3------|--1----1------------------|
------------------------3-3-|----------3--3S--5--------|


  Q    E  S S E  S S E  S S    Q    E  S S E  S S E  E   
--7-------------------------|--7------------------------|
--7-------------------------|--7------------------------|
--5----5--5-5-5--5-5-5--5-5-|--5----5--5-5-5--5-5-5-----|
----------------------------|------------------------7--|


  Q    E  S S E  S S E  S S    Q    E  E  E   Q    E   
--5-------------------------|-------------------------|
--5-------------------------|--3----------------------|
--3----3--3-3-3--3-3-3------|--1----1--------------5--|
------------------------3-3-|----------3--3S--5-------|


  E  S S E  S S E  S S E  S S    Q    E  S S E  S S E  E   
--7---------------------------|--7------------------------|
--7---------------------------|--7------------------------|
--5--5-5-5--5-5-5--5-5-5--5-5-|--5----5--5-5-5--5-5-5-----|
------------------------------|------------------------7--|


  Q    E  S S E  S S E  S S    Q    E  E  E   Q    S S  
--5-------------------------|----------------------7-7-|
--5-------------------------|--3-----------------------|
--3----3--3-3-3--3-3-3------|--1----1------------------|
------------------------3-3-|----------3--3S--5--------|


  Q    E  S S E  S S E  E     Q    E  S S E  S S E  E   
--7------------------------|--7------------------------|
--7------------------------|--7------------------------|
--5----5--5-5-5--5-5-5-----|--5----5--5-5-5--5-5-5-----|
------------------------7--|------------------------7--|


  Q    E  S S E  S S E  S S    Q    E  E  E   Q    E     W                 
--5-------------------------|-------------------------|--7----------------|
--5-------------------------|--3----------------------|--7----------------|
--3----3--3-3-3--3-3-3------|--1----1--------------5--|--5----------------|
------------------------3-3-|----------3--3S--5-------|--0----------------|


  Break                                                                    
                                                 >     >     >     >       
  W                   W                   S  S S S S S S S S S S S S S E   
--L----------------|--L----------------|----------------------------------|
--L----------------|--L----------------|--7----------------------------5--|
--L----------------|--L----------------|--5s-7-7-7-7-7-7-7-7-7-7-7-7-7----|
--L----------------|--L----------------|----------------------------------|


                                    Riff B                          
         >     >     >                                              
  S  S S S S S S S S S E  S S E     E      S E  S E  S E  S S S E   
---------------------------------|---------------------------------|
--------------------------4-4-5--|---------------------------------|
--5s-7-7-7-7-7-7-7-7-7-7---------|--7------0-7--0-7--0-7--0-7-7-7--|
---------------------------------|---------------------------------|


  E  S E  S E  S E  S S S E     E  S E  S E  S E  S S S E   
-----------------------------|-----------------------------|
----------------------4-4-5--|-----------------------------|
--7--0-7--0-7--0-7--0--------|--7--0-7--0-7--0-7--0-7-7-7--|
-----------------------------|-----------------------------|


  E  S E  S E  S E  S S S E     E  S E  S E  S E  S S S E   
-----------------------------|-----------------------------|
-----------------------------|-----------------------------|
--7--0-7--0-7--0-7--0-7-7-7--|--7--0-7--0-7--0-7--0-7-7-7--|
-----------------------------|-----------------------------|


  E  S E  S E  S E  S S S E     E  S E  S E  S E  S S S E   
-----------------------------|-----------------------------|
--------------------------5--|-----------------------------|
--7--0-7--0-7--0-7--0-7-7----|--7--0-7--0-7--0-7--0-7-7-7--|
-----------------------------|-----------------------------|


                               Interludio 1                         
  E  S E  S E  E  E  E   E     E            S E  S E  E  S E  S E   
----------------------------|--------------------------------------|
---------------4--5---------|--------------------------------------|
--7--0-7--0-7--------7\-----|-------------------------0--0-0--1-1--|
-------------------------2--|--3------------3-3--5-5---------------|


  E  S E  S E  E  S E  S E     E  S E  S E  S E  S S S S S  
----------------------------|--------------------------9---|
----------------------------|--------------------7-9-9---9-|
--3--3-3--5-5--7--7-7--7-8--|--7--7-7--7-7--7-7------------|
----------------------------|------------------------------|


                                    Riff B                          
               |-3-|    |-3-|                                       
  E  S E  S E  S S S E  S S S E     E      S E  S E  S E  S S S E   
---------------------------------|---------------------------------|
---------------------------------|---------------------------------|
--7--7-7--7-7--7-7-7-7--7-7-7-7--|--7------0-7--0-7--0-7--0-7-7-7--|
---------------------------------|---------------------------------|


  E  S E  S E  S E  S S S E     E  S E  S E  S E  S S S E   
-----------------------------|-----------------------------|
----------------------4-4-5--|-----------------------------|
--7--0-7--0-7--0-7--0--------|--7--0-7--0-7--0-7--0-7-7-7--|
-----------------------------|-----------------------------|


                                Interludio 1                         
  E  S E  S E  S E  S S S E     E            S E  S E  E  S E  S E   
-----------------------------|--------------------------------------|
-----------------------------|--3------------3-3--5-5--7--7-7--8-8--|
--7--0-7--0-7--0-7--0-7-7-7--|--------------------------------------|
-----------------------------|--------------------------------------|


   E   S  E   S  E  E  S E  S  E     E  S E  S E  S E  S   S   S  S  S  
--------------------9--9-9--9-10--|--9--9-9--9-9--9-9--9h-12p-10p-9----|
--10--10-10--12-12----------------|---------------------------------12-|
----------------------------------|------------------------------------|
----------------------------------|------------------------------------|


                               Interludio 2a                         
  E  S E  S E  S E  S Q        E             S E  S E  S E  S E  E   
--9--9-9--9-9--9-9--9-------|---------------------------------------|
----------------------------|---------------------------------------|
----------------------7\----|--5-------------5-5--5-5--5-5--5-5--5--|
----------------------------|---------------------------------------|


  E  S E  S E  S E  S E  S S    E  S E  S E  S E.  Q       Q    E  E  H         
-----------------------------|--------------------------|----------------------|
-----------------------------|---------------------7----|--5----7--5--L--------|
--5--5-5--5-5--5-5--5-7--8-0-|--5--5-5--5-5--5-5--------|----------------------|
-----------------------------|--------------------------|----------------------|


  Interludio 2b                                                      
  E             S E  S E  S E  S E  E     E  S E  S E  S E  S E  E   
---------------------------------------|----------------------------|
---------------------------------------|----------------------------|
--5-------------5-5--5-5--5-5--5-5--5--|--5--5-5--5-5--5-5--5-5--5--|
---------------------------------------|----------------------------|


                                               |-3-|  
  E  S E  S E  S E.  Q       Q    E  E  Q.     S S S  
--------------------------|--------------------------|
---------------------7----|--5----7--8--L------7-7-7-|
--5--5-5--5-5--5-5--------|--------------------------|
--------------------------|--------------------------|


  Puente                                                                        
         |-3-|                                                                  
  Q.     S S S E  E   E  E     S S H.           S S    Q.      S S  Q.     S S  
--9-------------------------|-----------------------|--------------------------|
--7------5-5-5-7--8--10--8--|--7-5-7------------7-8-|--7-----------------------|
----------------------------|-----------------------|---------10-8-10------8-7-|
----------------------------|-----------------------|--------------------------|


                          Coro                      
  Q.     S S Q    Q       Q    E  S S E  S S E  E   
-----------------------|--7------------------------|
-----------------------|--7------------------------|
--8------7-5-7----3----|--5----5--5-5-5--5-5-5-----|
-----------------------|------------------------7--|


  Q    E  S S E  S S E  S S    Q    E  E  E   Q    E   
--5-------------------------|-------------------------|
--5-------------------------|--3----------------------|
--3----3--3-3-3--3-3-3------|--1----1--------------5--|
------------------------3-3-|----------3--3S--5-------|


  Solo Adrian Smith                                                  
  Q                 E  S S E  S S E  E     Q    E  S S E  S S E  E   
--7-------------------------------------|--7------------------------|
--7-------------------------------------|--7------------------------|
--5-----------------5--5-5-5--5-5-5-----|--5----5--5-5-5--5-5-5-----|
-------------------------------------7--|------------------------7--|


  Q    E  S S E  S S E  S S    Q    E  E  E   Q    S S  
--5-------------------------|--------------------------|
--5-------------------------|--3-----------------------|
--3----3--3-3-3--3-3-3------|--1----1--------------5-5-|
------------------------3-3-|----------3--3S--5--------|


  E  S S E  S S E  S S E  S S    Q    E  S S E  S S E  E   
--7---------------------------|--7------------------------|
--7---------------------------|--7------------------------|
--5--5-5-5--5-5-5--5-5-5--5-5-|--5----5--5-5-5--5-5-5-----|
------------------------------|------------------------7--|


  Q    E  S S E  S S E  S S    Q    E  E  E   Q    E   
--5-------------------------|-------------------------|
--5-------------------------|--3----------------------|
--3----3--3-3-3--3-3-3------|--1----1--------------5--|
------------------------3-3-|----------3--3S--5-------|


  Q    E  S S E  S S E  S S    Q    E  S S E  S S E  E   
--7-------------------------|--7------------------------|
--7-------------------------|--7------------------------|
--5----5--5-5-5--5-5-5--5-5-|--5----5--5-5-5--5-5-5-----|
----------------------------|------------------------7--|


  Q    E  S S E  S S E  E     Q    E  E  E   Q    S S  
--5------------------------|--------------------------|
--5------------------------|--3-----------------------|
--3----3--3-3-3--3-3-3-----|--1----1--------------5-5-|
------------------------3--|----------3--3S--5--------|


                             Outro Coro                      
  Q    E  S S E  S S Q       Q          E  S S E  S S E  E   
--7-----------------------|--7------------------------------|
--7-----------------------|--7------------------------------|
--5----5--5-5-5--5-5-5----|--5----------5--5-5-5--5-5-5-----|
--------------------------|------------------------------7--|


  Q    E  S S E  S S E  S S    Q    E  E  E   Q    S S  
--5-------------------------|--------------------------|
--5-------------------------|--3-----------------------|
--3----3--3-3-3--3-3-3------|--1----1--------------5-5-|
------------------------3-3-|----------3--3S--5--------|


  Q    E  S S E  S S E  E     Q    E  S S E  S S E  E   
--7------------------------|--7------------------------|
--7------------------------|--7------------------------|
--5----5--5-5-5--5-5-5-----|--5----5--5-5-5--5-5-5-----|
------------------------7--|------------------------7--|


  Q    E  S S E  S S E  S S    Q    E  E  E   Q    S S  
--5-------------------------|--------------------------|
--5-------------------------|--3-----------------------|
--3----3--3-3-3--3-3-3------|--1----1--------------5-5-|
------------------------3-3-|----------3--3S--5--------|


  E  S S E  S S E  S S E  S S    Q    E  S S E  S S E  E   
--7---------------------------|--7------------------------|
--7---------------------------|--7------------------------|
--5--5-5-5--5-5-5--5-5-5--5-5-|--5----5--5-5-5--5-5-5-----|
------------------------------|------------------------7--|


  Q    E  S S E  S S E  S S    Q    E  E  E   Q    S S  
--5-------------------------|----------------------7-7-|
--5-------------------------|--3-----------------------|
--3----3--3-3-3--3-3-3------|--1----1------------------|
------------------------3-3-|----------3--3S--5--------|


  Q    E  S S E  S S E  S S    Q    E  S S E  S S E  E   
--7-------------------------|--7------------------------|
--7-------------------------|--7------------------------|
--5----5--5-5-5--5-5-5--5-5-|--5----5--5-5-5--5-5-5-----|
----------------------------|------------------------7--|


                                                        Outro             
  Q    E  S S E  S S E  E     Q    E  E  E   Q    E     W                 
--5------------------------|-------------------------|--7----------------|
--5------------------------|--3----------------------|--7----------------|
--3----3--3-3-3--3-3-3-----|--1----1--------------5--|--5----------------|
------------------------3--|----------3--3S--5-------|--0----------------|


  W                   W                   W                   W                 
--L----------------|--L----------------|--L----------------|--L----------------|
--L----------------|--L----------------|--L----------------|--L----------------|
--L----------------|--L----------------|--L----------------|--L----------------|
--L----------------|--L----------------|--L----------------|--L----------------|


                      Acoustic Outro                                            
  W                   W                   W                   W                 
-------------------|-------------------|-------------------|-------------------|
-------------------|-------------------|-------------------|-------------------|
-------------------|-------------------|-------------------|-------------------|
-------------------|-------------------|-------------------|-------------------|


  W                   W                   W                   W                 
-------------------|-------------------|-------------------|-------------------|
-------------------|-------------------|-------------------|-------------------|
-------------------|-------------------|-------------------|-------------------|
-------------------|-------------------|-------------------|-------------------|


  W                   W                   W                   W                 
-------------------|-------------------|-------------------|-------------------|
-------------------|-------------------|-------------------|-------------------|
-------------------|-------------------|-------------------|-------------------|
-------------------|-------------------|-------------------|-------------------|


  W                   W                   W                   W                 
-------------------|-------------------|-------------------|-------------------|
-------------------|-------------------|-------------------|-------------------|
-------------------|-------------------|-------------------|-------------------|
-------------------|-------------------|-------------------|-------------------|


  W                   W                   W                   W                 
-------------------|-------------------|-------------------|-------------------|
-------------------|-------------------|-------------------|-------------------|
-------------------|-------------------|-------------------|-------------------|
-------------------|-------------------|-------------------|-------------------|


  W                   W                   W                   W                 
-------------------|-------------------|-------------------|-------------------|
-------------------|-------------------|-------------------|-------------------|
-------------------|-------------------|-------------------|-------------------|
-------------------|-------------------|-------------------|-------------------|


  H        H           W                   W                  
--------------------|-------------------|-------------------||
--------------------|-------------------|-------------------||
-----------5--------|--L----------------|--L----------------||
-----------0--------|--L----------------|--L----------------||




Duration Legend
---------------
W - whole
H - half
Q - quarter
E - 8th
S - 16th
T - 32nd
X - 64th
. - note dotted
|-n-|  - n-tuplets


Tablature Legend
----------------
L - tied note
x - dead note
g - grace note
(n) - ghost note
> - accentuded note
NH - natural harmonic
AH - artificial harmonic
TH - tapped harmonic
SH - semi harmonic
PH - pitch harmonic
h - hammer on
p - pull off
b - bend
br - bendRelease
pb - preBend
pbr - preBendRelease
brb - bendReleaseBend
\n/ - tremolo bar dip
\n - tremolo bar dive
-/n - tremolo bar Release up
/n\ - tremolo bar inverted dip
/n - tremolo bar return
-\n - tremolo bar Release down
S - shift slide
s - legato slide
/ -  slide into from below or out of upwards
\ -  slide into from above or out of downwards
~ - vibrato
W - wide vibrato
tr - trill
TP - tremolo picking
T - tapping
S - slap
P - pop
< - fade in
^ - brush up
v - brush down

            
            
Suggest correction
Creating personal tab
Creating personal tab
You can edit any tab online and save it as your Personal.

You can edit, replace or remove any tab part or add personal notes – all changes will be seen only by you.

Personal tabs can be accessed anytime from any device, even offline.
Learn more »
comments
print report bad tab
guest
You may want to rate the tab now too:
select rating
Wanna post a correction for this tab? Suggest correction