Oops, an error
Loading. Please wait.

Infinite Dreams Tab

version 2
version 2

Whole song

7,199 views 36 this week
no commentswrite comment
1 2 3 4 5
accurate
x 4
add to favorites
launch autoscroll
font size
0
reset
how to read this tab
guitar tuner
Autoscroll
slow
fast
+/-
esc
set tempo
stop
Help us to improve Ultimate-Guitar.com Take our survey!
×
Author
-------------------------------------------------------------------------------
                                                  Infinite Dreams - Iron Maiden
-------------------------------------------------------------------------------
Tabbed by: Dan222

Tuning: EADGBe

INTRO (00:00 - 00:25)
e|----------------------------------------------------10--7------------|
B|-10b12-10b12--10--8--10--10b12----10b12-10b12-10--8-------10-8-10b12-|
G|---------------------------------------------------------------------|
D|---------------------------------------------------------------------|
A|---------------------------------------------------------------------|
E|---------------------------------------------------------------------|

VERSE 1 
(00:26 - 1:06)
"Infinite Dreams..."  | "I can't deny them..."
e|--------------------|-----------------------|
B|--------------------|-----------------------|
G|--------------------|-5----7----------------|
D|---5--7-----5-7-5---|-5----7----------------|
A|------------------7-|-3----5---5-7-5--------|
E|-0------------------|----------------7------|

"Infinity is hard..."  "to comprehened..."
e|--------------------|------------------------|
B|--------------------|------------------------|
G|--------------------|-----5--------7------9--|
D|--------------------|---5--------7------9----|
A|----5--7---5--7-----|-3-----3--5------7------|
E|-0------------------|------------------------|

"I couldn't hear..."   "Even in my wildest..."
e|--------------------|----------------------------|
B|--------------------|----------------------------|
G|--------------------|-5---7----------------------|
D|-----7s5---2s5s2----|-5---7--------------7s5s2h0-|
A|--------------------|-3---5--5-7-5---------------|
E|-0---------------------------------7--0----------|

"..." (This part should be on bass, but played on the guitar is:)
e|-----------------------------------|
B|-----------------------------------|
G|-----------------------------------|
D|---3h5---3h5----5h7---5h7p5h7p5----|
A|-3-----3-----5------5-----------7--|
E|-----------------------------------|

"Suffocation..."      | "Waking a sweat..."
e|--------------------|-----------------------|
B|--------------------|-----------------------|
G|--------------------|-5----7----------------|
D|---5--7-----5-7-5---|-5----7----------------|
A|------------------7-|-3----5---5-7-5--------|
E|-0------------------|----------------7------|

"scared to fall a sleep..." | "Again..."
e|--------------------|------------------------|
B|--------------------|------------------------|
G|--------------------|-----5--------7------9--|
D|--------------------|---5--------7------9----|
A|----5--7---5--7-----|-3-----3--5------7------|
E|-0------------------|------------------------|

"In case the dream..."
e|--------------------|----------------------------|
B|--------------------|----------------------------|
G|--------------------|-5---7----------------------|
D|-----7s5---2s5s2----|-5---7--------------7s5s2h0-|
A|--------------------|-3---5--5-7-5---------------|
E|-0---------------------------------7--0----------|

"..." 
e|-----------------------------------|
B|-----------------------------------|
G|-----------------------------------|
D|---3h5---3h5----5h7---5h7p5h7p5----|
A|-3-----3-----5------5-----------7--|
E|-----------------------------------|

VERSE 2 (1:07 - 1:43)
Repeat Verse 1

CHORUS (1:44 - 2:30)

e|-------------------------------------|
B|-------------------------------------|
G|-9-9----5-5----7-7--7----------------| X2
D|-9-9----5-5----7-7--7------4-5-4-----|
A|-7-7----3-3----5-5--5--5-7-------7-5-|
E|-------------------------------------|


e|--------------------------------------------|
B|--------------------------------------------|
G|-12-12----8-8---10-10--10-------------------|
D|-12-12----8-8---10-10--10--------7-8-7------| X2
A|-10-10----6-6----8--8---8--8--10-------10-8-|
E|--------------------------------------------|

e|-------------------------------------|
B|-------------------------------------|
G|-9-9----5-5----7-7--7----------------| X2
D|-9-9----5-5----7-7--7------4-5-4-----|
A|-7-7----3-3----5-5--5--5-7-------7-5-|
E|-------------------------------------|


e|--------------------------------------------|
B|--------------------------------------------|
G|-12-12----8-8---10-10--10-------------------|
D|-12-12----8-8---10-10--10--------7-8-7------| X2
A|-10-10----6-6----8--8---8--8--10-------10-8-|
E|--------------------------------------------|

INTERLUDE (2:30 - 3:13)
e|---------------------------------------------------|
B|---------------------------------------------------|
G|---------------------------------------------------|
D|-2-5-4-5-4-5-4-5---5-4-5-4-5-4-5---5-4-5-4-5-4-5-4-|
A|-----------------3---------------5-----------------|
E|---------------------------------------------------|

e|---------------|
B|---------------|
G|---------------|
D|-0-2-4-5-4-2-0-|
A|---------------|
E|---------------|

e|---------------------------------------------------|
B|---------------------------------------------------|
G|---------------------------------------------------|
D|-2-5-4-5-4-5-4-5---5-4-5-4-5-4-5---5-4-5-4-5-4-5-4-|
A|-----------------3---------------5-----------------|
E|---------------------------------------------------|

e|-------------------|
B|-------------------|
G|---------2---------|
D|-0-5-4-5---5-4-2-0-|
A|-------------------|
E|-------------------|
REPEAT AS YOU NEED

INTERLUDE 2
(3:15 - 3:25)
e|----------------------------------------|
B|----------------------------------------|
G|----------------------------------------|
D|----------------------------4-5-4-5-4---|
A|-77777777-33333333-55555555-----------5-|
E|----------------------------------------|

e|------------------------------------|
B|------------------------------------|
G|------------------------------------|
D|------------------------------------|
A|-77777777-33333333-5555555555555555-|
E|------------------------------------|
X2

(3:25 - 3:32)
e|---------------------------|
B|---------------------------|
G|---------------------------|
D|---------------------------|
A|--------------2-2-2-2-3-5--|
E|-333333333333--------------|
X2

(3:33 - 3:45)

e|-------------------------------------|
B|-------------------------------------|
G|-------------------------------5---7-|
D|---------------------55555555--5---7-|
A|-77777777--55555555------------3---5-|
E|-------------------------------------|

e|-----------------|
B|-----------------|
G|-----------------|
D|-----------------|
A|-----------------|
E|-3--3--333--3--3-|
X2

then... (3:45 - 3:50)
e|---------------------------|
B|---------------------------|
G|---------------------------|
D|---------------------------|
A|--------------2-2-2-2-3-5--|
E|-333333333333--------------|

RIFF (3:51 - 4:01)
e|-----------------------------|
B|----------------------8--8bf-|
G|-10---9-7--------------------|
D|----------10---9-7-----------|
A|-------------------10--------|
E|-----------------------------|

INTERLUDE 3 (4:02 - 4:25)
e|-----------------7---------|
B|-------7-8---7-8---8--7--8-|
G|-9---9---------------------|
D|---------------------------|
A|---------------------------|
E|---------------------------|

BRIDGE (4:26 - 4:39)
"Help me, help me to find my true..." 
e|-------------------------------------------------|
B|-------------------------------------------------|
G|-------------------------7-7-7-9-9-9-------9-9-9-|
D|-4--4-4-4--4-4-4--4-4-4--7-7-7-9-9-9-4-4-4-9-9-9-|
A|-4--4-4-4--4-4-4--4-4-4--5-5-5-7-7-7-4-4-4-7-7-7-|
E|-2--2-2-2--2-2-2--2-2-2--------------2-2-2-------|

e|-----------------------------------------|
B|-----------------------------------------|
G|-------------------------7-7-7-9-9-9-----|
D|-4--4-4-4--4-4-4--4-4-4--7-7-7-9-9-9--7/-|
A|-4--4-4-4--4-4-4--4-4-4--5-5-5-7-7-7--7/-|
E|-2--2-2-2--2-2-2--2-2-2---------------5/-|

SOLO 1 (4:40 - 4:52)

Rythm
e|-----------------------------------------------|
B|-----------------------------------------------|
G|-----------------------------------------------|
D|-----------------------------------------------| X4
A|--------9-7-9-------9-7-9-------9-7-9-------10-|
E|-0-0-0--------0-0-0-------0-0-0-------0-0-0----|

Solo
e|---------------------------|
B|-15bf---15-15-15-15-13-12--|
G|---------------------------|
D|---------------------------|
A|---------------------------|
E|---------------------------|

e|-----15-----15-14-12----------------------|
B|-12------------------15-13-12-------------|
G|------------------------------14-12-11----|
D|---------------------------------------14-|
A|------------------------------------------|
E|------------------------------------------|

e|----------------------------------12-------12-14-15-17-15-17-17bf-|
B|----------------13-12----15-13-12----15h12------------------------|
G|-------12-11----------14------------------------------------------|
D|-12-14-------14---------------------------------------------------|
A|------------------------------------------------------------------|
E|------------------------------------------------------------------|

e|-17-17-17-15-15-15-17-17-17-14-14-14--17-15-14-17-15-14-17-15-14----|
B|-----------------------------------------------------------------12-|
G|--------------------------------------------------------------------|
D|--------------------------------------------------------------------|
A|--------------------------------------------------------------------|
E|--------------------------------------------------------------------|

SOLO 2 (4:52 - 5:04)
I have only the Rhytm for this Solo:

e|----------------------------------------------|
B|----------------------------------------------|
G|----------------------------------------------|
D|--------4-2-4-------4-2-4-------4-2-4-------4-|
A|----------------------------------------------|
E|-2-2-2--------2-2-2-------2-2-2-------2-2-2---|

REPEAT INTERLUDE 3 (5:05 - 5:25)

FILL (5:26 - 5:29)
e|-7---7-----8-7-8---10-8-10-|
B|---7---7-------------------|
G|---------------------------|
D|---------------------------|
A|---------------------------|
E|---------------------------|

REPEAT CHORUS UNTIL THE END.

Plz comment and rate C:
Suggest correction
What's this?
You can suggest a correction to this tab. Community and Mods will review your correction and vote to approve or reject it.
comments
print report bad tab
guest
You may want to rate the tab now too:
select rating
Please do not post tabs as comments. Select "correction" instead!