Oops, an error
Loading. Please wait.

Invaders Tab

version 2
version 2

Whole song

Interactive

4,581 views 1 this week
3 commentsread comments
1 2 3 4 5
accurate
x 3
add to favorites
launch autoscroll
font size
0
reset
how to read this tab
guitar tuner
Autoscroll
slow
fast
+/-
esc
set tempo
stop
Help us to improve Ultimate-Guitar.com Take our survey!
×
Author
screechy 194
.  - palm mute           /  - slide up to
\  - slide down to       ~  - vibrato
h  - hammer on           b  - Bend
p  - pull off            Suffixes for bend
t  - tap                 f  - full bend    h - half bend
ph - pinched harmonic    q  - quarter bend t - tap bend
*  - see comment         ^  - Hold bend    r release bend
x  - Stuccatto           ~  - vibrato bend
,  - slight palm mute    () - ghost note, sustained note
"  - tremolo note        <> - Trill

Tunning(E A D G B E)

|-------------------------------------------------------------------|
|-------------------------------------------------------------------|
|---------9-------------------------9-------------------------------|
|-9-9-9-9-9-----5----7------9-9-9-9-9-----5----7--------------------|
|-7-7-7-7-7-----3----5------7-7-7-7-7-----3----5--------------------|
|-------------------------------------------------------------------|

|-------------------------------------------------------------------|
|-------------------------------------------------------------------|
|-----------9-----------------------9-------5-----------------------|
|-9-9-9-9-9-9-----5-----7-------9-9-9---5-5-5-----7---5----7--------|
|-7-7-7-7-7-7-----3-----5-------7-7-7---3-3-3-----5---3----5--------|
|-------------------------------------------------------------------|

|-------------------------------------------------------------------|
|-------------------------------------------------------------------|
|-------------------------------------------------------------------|
|----------7-5-----5-5-------------------7-5------5-5---7-7---------|
|-0-0-5h7-------7--------5-3----0-0-5h7-------7---3-3---5-5---------|
|-------------------------------------------------------------------|

|-------------------------------------------------------------------|
|-------------------------------------------------------------------|
|-------------------------------------------------------------------|
|-9-9-------------------------9-9-----------------------------------|
|-7-7--7--7--7-7-7---7-7-7----7-7--7--7--7-7-7--7-7-7---------------|
|-------------------------------------------------------------------|

|-------------------------------------------------------------------|
|-------------------------------------------------------------------|
|-------------------------------------------------------------------|
|-5-5-----------------7-7-------------------------------------------|
|-3-3-3-3-3-3-3-3-----5-5--5-5-5-5-5-5-5----------------------------|
|-------------------------------------------------------------------|

|-------------------------------------------------------------------|
|-------------------------------------------------------------------|
|-------------------------------------------------------------------|
|-2-----------2------------2------------2---------------------------|
|----5-4-2p0-----5-4-2p0------5-4-2p0-------5-4p0-------------------|
|-------------------------------------------------------------------|

|-------------------------------------------------------------------|
|-------------------------------------------------------------------|
|-------------------------------------------------------------------|
|-4-4-4-4-4-4-4----------------4-4-4-4-4-4-4------------------------|
|-2-2-2-2-2-2-2----------------2-2-2-2-2-2-2------------------------|
|------------------4-4-4-5-6--------------------4-4-4-5-6-----------|
pm.............               pm............

|-------------------------------------------------------------------|
|-------------------------------------------------------------------|
|-----------------5-6-8---------------8-6-5-------------------------|
|-8---6------6-8-----------8-----6-----------8-6-5------------------|
|-6---6--------------------6-----6------------------8---------------|
|-----4--------------------------4----------------------------------|

rythm for solo 1
|-------------------------------------------------------------------|
|-------------------------------------------------------------------|
|-------------------------------------------------------------------|
|----------7-5-----5-5-------------------7-5------5-5---7-7---------|
|-0-0-5h7-------7--------5-3----0-0-5h7-------7---3-3---5-5---------|
|-------------------------------------------------------------------|

rythm for solo 2
|-------------------------------------------------------------------|
|-------------------------------------------------------------------|
|-------------------------------------------------------------------|
|-3-2-0---5-5-5-5-5-5-5-5--3-2-0---3-2-0---3-2-0----3-2-0------5----|
|---------3-3-3-3-3-3-3-3--------3-------3--------3--------3---5----|
|--------------------------------------------------------------3----|

|-------------------------------------------------------------------|
|-------------------------------------------------------------------|
|-------------------------------------------------------------------|
|-5-5-5-5-5---------------------------------------------------------|
|-5-5-5-5-5---3-2-0---3-2-0---3-2-0----3-2-0------------------------|
|-3-3-3-3-3---------3-------3-------3---------3---------------------|

dave murray solo
--------------------------------------------------------------------|
-12~~~-12h13p12----12~~~~12h13p12-----------------------------------|
----------------14----------------14p12-11h12p11--------------------|
-------------------------------------------------14-----------------|
--------------------------------------------------------------------|
--------------------------------------------------------------------|

------------------------------------------------12-13-12----12-13-15-|
--------------------------12h13p12----12-13-15-----------15----------|
----11h12p11----11h12h14-----------14--------------------------------|
-14----------14------------------------------------------------------|
---------------------------------------------------------------------|
---------------------------------------------------------------------|

-15p13p12----12-13-15r15b~~~~~17-------17-------17------17----------|
----------15----------------------20b------20b-----20b------20b-----|
--------------------------------------------------------------------|
--------------------------------------------------------------------|
--------------------------------------------------------------------|
--------------------------------------------------------------------|

-17h20p17h20p17--------------------------17h20p17----17h20p17-------|
-----------------17h20p17h20p17h20-20b------------20----------20----|
--------------------------------------------------------------------|
--------------------------------------------------------------------|
--------------------------------------------------------------------|
--------------------------------------------------------------------|

--------------------------------------------------------------------|
--17h20p17----------------------------------------------20b~~~~~----|
------------20-19-17---17h19p17-----17h19p17----17~~~~--------------|
---------------------------------19----------19---------------------|
--------------------------------------------------------------------|
--------------------------------------------------------------------|

adrian smith solo
----------------------------5---------------------------------------|
-------------------------------5-8p5--------------------------------|
---------(3)p.h--7-7~~~~7b------------8-7-5~~~5-7-5---5-7-5---------|
-3-2-0----------------------------------------------7-------7-------|
--------------------------------------------------------------------|
--------------------------------------------------------------------|

--------------------------------------------------------------------|
----------------------------3b----------3b--------------------------|
-5--------------------------3b----------3b---------------5~~~~~-----|
---7-5-7-5----------------------5~~~~~------5-3---------------------|
-----------7-5\3---------------------------------5-4-3--------------|
------------------5-4-3---------------------------------------------|

--------------------5---------5-------------5-----------------------|
-----------------------8-5--------8-5-----------8-5-------5-8~~~~~--|
--7b(slowlybend7)-----------7b----------7b------------7b------------|
--------------------------------------------------------------------|
--------------------------------------------------------------------|
--------------------------------------------------------------------|

--\-/15-------------------------------------------------------------|
---------18b--15--------15------------------------------------------|
------------------15~~~~15------------------17~~~~~~----------------|
---------------------------17-15------------------------------------|
---------------------------------17-16-15---------------------------|
--------------------------------------------------------------------|

--------------------------------------------------------------------|
--------------------------------------------------------------------|
-----------9------------------------------9-------------------------|
-9-9-9-9-9-9----5-----7---------9-9-9-9-9-9-------5-----7-----------|
-7-7-7-7-7-7----3-----5---------7-7-7-7-7-7-------3-----5-----------|
--------------------------------------------------------------------|

|------------------------------------------------------------------|
|------------------------------------------------------------------|
|-----------9--------------------9-9-9-9---5-5-5-5-5---------------|
|-9-9-9-9-9-9-----5----7---------9-9-9-9---5-5-5-5-5----9--7--9\/--|
|-7-7-7-7-7-7-----3----5---------7-7-7-7---3-3-3-3-3----7--5--7\/--|
|------------------------------------------------------------------|
Suggest correction new What's this?
You can suggest a correction to this tab. Community and Mods will review your correction and vote to approve or reject it.
comments
We did not receive enough feedback on this tab! Please rate:
print report bad tab
1 2 3 4 5
3 comments total.
0 reply
Rifferx 49 wrote on October 5 2015, 07:26 pm

Lack of accuracy. The intro riffs are not quite accurate and the solos are very inaccurate. What else can I say, I have been unable to find what sounds like an accurate version of this song anywhere. Just using my ear.

0 reply
Rifferx 49 wrote on October 5 2015, 07:27 pm

Not quite. In fact, I have been unable to find an accurate transcription of this song anywhere!

0 reply
trentonlambert 414 wrote on April 25 2016, 01:36 am

I agree, it's not 100% accurate but it's a very good guideline if you're good with learning by ear and you're familiar with the song

guest
You may want to rate the tab now too:
select rating
Please do not post tabs as comments. Select "correction" instead!