Oops, an error
Loading. Please wait.

Iron Maiden tab

version 5
version 5
459 views 3 this week
no commentswrite comment
1 2 3 4 5
3 more votes to show rating
add to favorites
×
Save as Personal and add changes to this tab that will be seen only by you. Learn more ›
×
You can save this tab as Personal to edit and correct it or add notes. All changes will be seen only by you. Learn more »
launch autoscroll
font size
0
reset
how to read this tab
guitar tuner
backing track
0:00
0:00
edit
Autoscroll
slow
fast
+/-
esc
set tempo
stop
Author
Artist: Iron Maiden
Album: Iron Maiden (1980)
Writer(s): Steve Harris

I've included the chorus licks here, though I'm not sure about those, but this is how I play them.


h = hammer on
p = pull off
b = bend (to)
\ = slide down

Intro:

Gtr 1
E |------------------------|
B |--------------5---------|
G |-2--2-0h2p0-----5-2-4-0-|
D |------------2-----------|
A |------------------------|
E |------------------------|

Gtr 2
E |------------------------|
B |-1--1-0h1p0-------------|
G |------------2-0---------|
D |----------------4-2-0---|
A |----------------------3-|
E |------------------------|


Verse:
E |-----------------------------------------------------------------|
B |-----------------------------------------------------------------|
G |---------------------------------7-7-7-7-7-7-7-7-7-7-7-7-7-7-7-7-|
D |-----7-7-----7-7-----7-7-----7-7-5-5-5-5-5-5-5-5-5-5-5-5-5-5-5-5-|
A |-----------------------------------------------------------------|
E |-5-5-----5-5-----5-5-----5-5-------------------------------------|


Chorus 1:
E |--------------------------------------------------------------------------------------------------------|
B |-------------3b5-6b8-6b8-------------------3b5-6b8-8b10-------------3b5-6b8-6b8-------------------------|
G |--------------------------------------------------------------------------------------------h3p0h3p0...-|
D |-5-5-----7-7-------------------5-5-----7-7--------------5-5-----7-7-------------5-5-----7-7-------------|
A |-3-3-5-5-5-5-------------------3-3-5-5-5-5--------------3-3-5-5-5-5-------------3-3-5-5-5-5-------------|
E |-----3-3---------------------------3-3----------------------3-3---------------------3-3-----------------|


Chorus 2 (the same as number 1 but different licks):
E |---------------------------------------------------------0-----0-----0---------------|
B |-------------6b8-6b8-------------3b5-6b8-6b8---------------3b5---3b5---3b5-----------|
G |-------------------------------------------------------------------------------------|
D |-5-5-----7-7---------5-5-----7-7-------------5-5-----7-7-------------------5-5-----7-|
A |-3-3-5-5-5-5---------3-3-5-5-5-5-------------3-3-5-5-5-5-------------------3-3-5-5-5-|
E |-----3-3-----------------3-3---------------------3-3---------------------------3-3---|

Chorus 3 (the same as 1 and 2 but different licks):
E |-------------------------------------15b17\------------------20-19-18-20-19-18-20-19-18-20b22-----------|
B |-------------15b17-15b17--------------------------------------------------------------------------------|
G |--------------------------------------------------------------------------------------------------------|
D |-5-5-----7-7-------------5-5-----7-7-------------5-5-----7-7----------------------------------5-5-----7-|
A |-3-3-5-5-5-5-------------3-3-5-5-5-5-------------3-3-5-5-5-5----------------------------------3-3-5-5-5-|
E |-----3-3---------------------3-3---------------------3-3------------------------------------------3-3---|

Interlude:

Gtr 1                          End
E |---------------------------|---|
B |---------------------------|---|
G |---------------------0-2-4-|-5-|
D |--------0-2-3-0--2-3-------|---|
A |-0--2-3--------------------|---|
E |---------------------------|---|

Gtr2                                           End
E |-------------------------------------------|-------|
B |-15b17-15-13-12-12h13-------------12-13-15-|-15b17-|
G |-------------------------14----12-14-------|-------|
D |----------------------------15-------------|-------|
A |-------------------------------------------|-------|
E |-------------------------------------------|-------|

Gtr3                                           End
E |-13b15-13-12-10-10h12-------------10-12-13-|-13b15-|
B |----------------------13-10-12-13----------|-------|
G |-------------------------------------------|-------|
D |-------------------------------------------|-------|
A |-------------------------------------------|-------|
E |-------------------------------------------|-------|

After "bass solo":
E |-------------|
B |-------------|
G |-------------|
D |-7-7-7-7-7-5-|
A |-5-5-5-5-5-3-|
E |-------------|

Song structure:
Introriff
Verse
Introriff
Chorus 1
Introriff
Verse
Chorus 2
Interlude
"Bass solo"
Introriff
Verse
Chorus 3
Suggest correction
Creating personal tab
Creating personal tab
You can edit any tab online and save it as your Personal.

You can edit, replace or remove any tab part or add personal notes – all changes will be seen only by you.

Personal tabs can be accessed anytime from any device, even offline.
Learn more »
Give kudos to tab author, rate the tab!
1 2 3 4 5
comments
print report bad tab
guest
You may want to rate the tab now too:
select rating
Wanna post a correction for this tab? Suggest correction