Oops, an error
Loading. Please wait.

Iron Maiden tab

version 6
version 6
2,212 views 6 this week
no commentswrite comment
1 2 3 4 5
x 4
add to favorites
×
Save as Personal and add changes to this tab that will be seen only by you. Learn more ›
×
You can save this tab as Personal to edit and correct it or add notes. All changes will be seen only by you. Learn more »
launch autoscroll
font size
0
reset
how to read this tab
guitar tuner
backing track
0:00
0:00
edit
Autoscroll
slow
fast
+/-
esc
set tempo
stop
Author
Difficulty
                                  Iron Maiden                                   

                                  Iron Maiden

Instruments:
- G #1
- G #2
- G #3
- Voice Melody
- Chorus


Guitar #1:

Dave Murray

           Intro                                                               
                  |--3--|                            |--3--|                   
     S     E.   S S  S  S S E.  E   S S E     E.   S S  S  S S E.  E   S S E   
E||----|-----------------------------------|----------------------------------|
B||----|--------------------5--------------|-------------------5--------------|
G||----|--/2~---2-0h-2p-0-------5~----4----|--2~---2-0h-2p-0-------5~----4----|
D||----|------------------2---------7---5--|-----------------2---------7---5--|
A||----|-----------------------------------|----------------------------------|
E||----|-----------------------------------|----------------------------------|


         |--3--|                            |--3--|                   
  E.   S S  S  S S E.  E   S S E     E.   S S  S  S S E.  E   S S E   
----------------------------------|----------------------------------|
-------------------5--------------|-------------------5--------------|
--2~---2-0h-2p-0-------5~----4----|--2~---2-0h-2p-0-------5~----4----|
-----------------2---------7---5--|-----------------2---------7---5--|
----------------------------------|----------------------------------|
----------------------------------|----------------------------------|


  Riff A                                                                
           |--3--|                            |--3--|                   
  E.     S S  S  S S E.  E   S S E     E.   S S  S  S S E.  E   S S E   
------------------------------------|----------------------------------|
---------------------5--------------|-------------------5--------------|
--2~-----2-0h-2p-0-------5~----4----|--2~---2-0h-2p-0-------5~----4----|
-------------------2---------7---5--|-----------------2---------7---5--|
------------------------------------|----------------------------------|
------------------------------------|----------------------------------|


         |--3--|                            |--3--|                   
  E.   S S  S  S S E.  E   S S E     E.   S S  S  S S E.  E   S S E   
----------------------------------|----------------------------------|
-------------------5--------------|-------------------5--------------|
--2~---2-0h-2p-0-------5~----4----|--2~---2-0h-2p-0-------5~----4----|
-----------------2---------7---5--|-----------------2---------7---5--|
----------------------------------|----------------------------------|
----------------------------------|----------------------------------|


  Verso Riff                                         
  PM         PM   PM PM   PM PM   PM PM   PM PM      
  S          S  S S  S  S S  S  S S  S  S S  S  S S  
----------------------------------------------------|
----------------------------------------------------|
----------------9-------9-------9-------9-------9-9-|
--7----------7--7-7--7--7-7--7--7-7--7--7-7--7--7-7-|
----------------------------------------------------|
----------------------------------------------------|


  PM PM   PM PM   PM PM             
  S  S  S S  S  S S  S  E.  E.  E   
-----------------------------------|
-----------------------------------|
--------7-------7-------5---4------|
--5--5--5-5--5--5-5--5--5---5---5--|
--------------------------------5--|
-----------------------------------|


  PM PM   PM PM   PM PM   PM PM   PM PM      
  S  S  S S  S  S S  S  S S  S  S S  S  S S  
--------------------------------------------|
--------------------------------------------|
--------9-------9-------9-------9-------9-9-|
--7--7--7-7--7--7-7--7--7-7--7--7-7--7--7-7-|
--------------------------------------------|
--------------------------------------------|


  PM PM   PM PM   PM PM             
  S  S  S S  S  S S  S  E.  E.  E   
-----------------------------------|
-----------------------------------|
--------7-------7-------5---4------|
--5--5--5-5--5--5-5--5--5---5---5--|
--------------------------------5--|
-----------------------------------|


  PM PM   PM PM   PM PM   PM PM   PM PM      
  S  S  S S  S  S S  S  S S  S  S S  S  S S  
--------------------------------------------|
--------------------------------------------|
--------9-------9-------9-------9-------9-9-|
--7--7--7-7--7--7-7--7--7-7--7--7-7--7--7-7-|
--------------------------------------------|
--------------------------------------------|


  PM PM   PM PM   PM PM             
  S  S  S S  S  S S  S  E.  E.  E   
-----------------------------------|
-----------------------------------|
--------7-------7-------5---4------|
--5--5--5-5--5--5-5--5--5---5---5--|
--------------------------------5--|
-----------------------------------|


  PM PM   PM PM   PM PM   PM PM   PM PM      
  S  S  S S  S  S S  S  S S  S  S S  S  S S  
--------------------------------------------|
--------------------------------------------|
--------9-------9-------9-------9-------9-9-|
--7--7--7-7--7--7-7--7--7-7--7--7-7--7--7-7-|
--------------------------------------------|
--------------------------------------------|


                                      Riff A                             
  PM PM   PM PM   PM PM                                                  
                                               |--3--|                   
  S  S  S S  S  S S  S  E.  E.  E     E.     S S  S  S S E.  E   S S E   
-----------------------------------|------------------------------------|
-----------------------------------|---------------------5--------------|
--------7-------7-------5---4------|--2~-----2-0h-2p-0-------5~----4----|
--5--5--5-5--5--5-5--5--5---5---5--|-------------------2---------7---5--|
--------------------------------5--|------------------------------------|
-----------------------------------|------------------------------------|


         |--3--|                            |--3--|                   
  E.   S S  S  S S E.  E   S S E     E.   S S  S  S S E.  E   S S E   
----------------------------------|----------------------------------|
-------------------5--------------|-------------------5--------------|
--2~---2-0h-2p-0-------5~----4----|--2~---2-0h-2p-0-------5~----4----|
-----------------2---------7---5--|-----------------2---------7---5--|
----------------------------------|----------------------------------|
----------------------------------|----------------------------------|


                                     Coro                       
         |--3--|                                                
  E.   S S  S  S S E.  E   S S E     E    S S Q    E  S S Q     
----------------------------------|----------------------------|
-------------------5--------------|----------------------------|
--2~---2-0h-2p-0-------5~----4----|--5------5-L----------------|
-----------------2---------7---5--|--5----5-5-L----5----5-L----|
----------------------------------|--3----3-3-L----5--5-5-L----|
----------------------------------|----------------3--3-3-L----|


  E  S S Q    Q      E    E      E  S S Q    E  S S Q     
------------------------------|--------------------------|
--------------5------8----8---|--------------------------|
--7----7-L----7b----10b--10b--|--5----5-L----------------|
--7--7-7-L--------------------|--5--5-5-L----5----5-L----|
--5--5-5-L--------------------|--3--3-3-L----5--5-5-L----|
------------------------------|--------------3--3-3-L----|


  E  S S Q    Q      E    E       E  S S Q    E  S S Q     
-------------------------------|--------------------------|
--------------5------8---10----|--------------------------|
--7----7-L----7b----10b--12br--|--5----5-L----------------|
--7--7-7-L---------------------|--5--5-5-L----5----5-L----|
--5--5-5-L---------------------|--3--3-3-L----5--5-5-L----|
-------------------------------|--------------3--3-3-L----|


  E  S S Q    Q      E    E      E  S S Q    E  S S Q     
------------------------------|--------------------------|
--------------5------8----8---|--------------------------|
--7----7-L----7b----10b--10b--|--5----5-L----------------|
--7--7-7-L--------------------|--5--5-5-L----5----5-L----|
--5--5-5-L--------------------|--3--3-3-L----5--5-5-L----|
------------------------------|--------------3--3-3-L----|


                             Riff A                             
              tr                                                
                                      |--3--|                   
  E  S S Q    H              E.     S S  S  S S E.  E   S S E   
--------------------------|------------------------------------|
--------------------------|---------------------5--------------|
--7----7-L----2(0)--------|--2~-----2-0h-2p-0-------5~----4----|
--7--7-7-L----------------|-------------------2---------7---5--|
--5--5-5-L----------------|------------------------------------|
--------------------------|------------------------------------|


         |--3--|                            |--3--|                   
  E.   S S  S  S S E.  E   S S E     E.   S S  S  S S E.  E   S S E   
----------------------------------|----------------------------------|
-------------------5--------------|-------------------5--------------|
--2~---2-0h-2p-0-------5~----4----|--2~---2-0h-2p-0-------5~----4----|
-----------------2---------7---5--|-----------------2---------7---5--|
----------------------------------|----------------------------------|
----------------------------------|----------------------------------|


         |--3--|                   
  E.   S S  S  S S E.  E   S S E   
----------------------------------|
-------------------5--------------|
--2~---2-0h-2p-0-------5~----4----|
-----------------2---------7---5--|
----------------------------------|
----------------------------------|


  Verso Riff                                         
  PM         PM   PM PM   PM PM   PM PM   PM PM      
  S          S  S S  S  S S  S  S S  S  S S  S  S S  
----------------------------------------------------|
----------------------------------------------------|
----------------9-------9-------9-------9-------9-9-|
--7----------7--7-7--7--7-7--7--7-7--7--7-7--7--7-7-|
----------------------------------------------------|
----------------------------------------------------|


  PM PM   PM PM   PM PM             
  S  S  S S  S  S S  S  E.  E.  E   
-----------------------------------|
-----------------------------------|
--------7-------7-------5---4------|
--5--5--5-5--5--5-5--5--5---5---5--|
--------------------------------5--|
-----------------------------------|


  PM PM   PM PM   PM PM   PM PM   PM PM      
  S  S  S S  S  S S  S  S S  S  S S  S  S S  
--------------------------------------------|
--------------------------------------------|
--------9-------9-------9-------9-------9-9-|
--7--7--7-7--7--7-7--7--7-7--7--7-7--7--7-7-|
--------------------------------------------|
--------------------------------------------|


  PM PM   PM PM   PM PM             
  S  S  S S  S  S S  S  E.  E.  E   
-----------------------------------|
-----------------------------------|
--------7-------7-------5---4------|
--5--5--5-5--5--5-5--5--5---5---5--|
--------------------------------5--|
-----------------------------------|


  PM PM   PM PM   PM PM   PM PM   PM PM      
  S  S  S S  S  S S  S  S S  S  S S  S  S S  
--------------------------------------------|
--------------------------------------------|
--------9-------9-------9-------9-------9-9-|
--7--7--7-7--7--7-7--7--7-7--7--7-7--7--7-7-|
--------------------------------------------|
--------------------------------------------|


  PM PM   PM PM   PM PM             
  S  S  S S  S  S S  S  E.  E.  E   
-----------------------------------|
-----------------------------------|
--------7-------7-------5---4------|
--5--5--5-5--5--5-5--5--5---5---5--|
--------------------------------5--|
-----------------------------------|


  PM PM   PM PM   PM PM   PM PM   PM PM      
  S  S  S S  S  S S  S  S S  S  S S  S  S S  
--------------------------------------------|
--------------------------------------------|
--------9-------9-------9-------9-------9-9-|
--7--7--7-7--7--7-7--7--7-7--7--7-7--7--7-7-|
--------------------------------------------|
--------------------------------------------|


                                      Coro                       
  PM PM   PM PM   PM PM                                          
  S  S  S S  S  S S  S  E.  E.  E     E    S S Q    E  S S Q     
-----------------------------------|----------------------------|
-----------------------------------|----------------------------|
--------7-------7-------5---4------|--5------5-L----------------|
--5--5--5-5--5--5-5--5--5---5---5--|--5----5-5-L----5----5-L----|
--------------------------------5--|--3----3-3-L----5--5-5-L----|
-----------------------------------|----------------3--3-3-L----|


  E  S S Q     E.    E    S    E        E  S S Q    E  S S Q     
-------------------------------------|--------------------------|
---------------8-----8----8----8-----|--------------------------|
--7----7-L----10b---10b--10pb-10pbr--|--5----5-L----------------|
--7--7-7-L---------------------------|--5--5-5-L----5----5-L----|
--5--5-5-L---------------------------|--3--3-3-L----5--5-5-L----|
-------------------------------------|--------------3--3-3-L----|


  E  S S Q     E.    E.     E        E  S S Q    E  S S Q     
----------------------------------|--------------------------|
---------------8-----8------8-----|--------------------------|
--7----7-L----10b---10pb---10pbr--|--5----5-L----------------|
--7--7-7-L------------------------|--5--5-5-L----5----5-L----|
--5--5-5-L------------------------|--3--3-3-L----5--5-5-L----|
----------------------------------|--------------3--3-3-L----|


                                                             Break             
  E  S S Q    E.   E.    E        E  S S Q    E  S S Q       W                 
-------------------------------|--------------------------|-------------------|
--------------5----5-----5-----|--------------------------|-------------------|
--7----7-L----7b---7pb---7pbr--|--5----5-L----------------|--7----------------|
--7--7-7-L---------------------|--5--5-5-L----5----5-L----|--7----------------|
--5--5-5-L---------------------|--3--3-3-L----5--5-5-L----|--5----------------|
-------------------------------|--------------3--3-3-L----|-------------------|


  E.  E.  E.  E.  E  E     E.  E.  E.  E.  E  E   
------------------------|------------------------|
------------------------|------------------------|
------------------------|--------------0---2--4--|
--------------0---2--3--|--0---2---3-------------|
--0---2---3-------------|------------------------|
------------------------|------------------------|


    Interludio                                               
    E.         E.  E.  E.  E  E     E.  E.  E.  E.  E  E   3x
|--------------------------------|-------------------------||
|--------------------------------|-------------------------||
|*-------------------------------|------------------2--4--*||
|*---------------------0---2--3--|--0---2---3---5---------*||
|---0----------2---3-------------|-------------------------||
|--------------------------------|-------------------------||


                       Bass Riff                             
  W                    W                   W                 
--------------------|-------------------|-------------------|
--------------------|-------------------|-------------------|
--------------------|-------------------|-------------------|
--2~----------------|-------------------|-------------------|
--------------------|-------------------|-------------------|
--------------------|-------------------|-------------------|


  W                   S S S S S S Q    Q.      
-------------------|--------------------------|
-------------------|--------------------------|
-------------------|--------------------------|
-------------------|----------7---5-----------|
-------------------|--5-5-5-5-5---3-----------|
-------------------|--------------------------|


   Intro Riff                                                               
               |--3--|                            |--3--|                   
   E.        S S  S  S S E.  E   S S E     E.   S S  S  S S E.  E   S S E   
----------------------------------------|----------------------------------|
-------------------------5--------------|-------------------5--------------|
--/2~--------2-0h-2p-0-------5~----4----|--2~---2-0h-2p-0-------5~----4----|
-----------------------2---------7---5--|-----------------2---------7---5--|
----------------------------------------|----------------------------------|
----------------------------------------|----------------------------------|


         |--3--|                            |--3--|                   
  E.   S S  S  S S E.  E   S S E     E.   S S  S  S S E.  E   S S E   
----------------------------------|----------------------------------|
-------------------5--------------|-------------------5--------------|
--2~---2-0h-2p-0-------5~----4----|--2~---2-0h-2p-0-------5~----4----|
-----------------2---------7---5--|-----------------2---------7---5--|
----------------------------------|----------------------------------|
----------------------------------|----------------------------------|


  Riff A                                                                
           |--3--|                            |--3--|                   
  E.     S S  S  S S E.  E   S S E     E.   S S  S  S S E.  E   S S E   
------------------------------------|----------------------------------|
---------------------5--------------|-------------------5--------------|
--2~-----2-0h-2p-0-------5~----4----|--2~---2-0h-2p-0-------5~----4----|
-------------------2---------7---5--|-----------------2---------7---5--|
------------------------------------|----------------------------------|
------------------------------------|----------------------------------|


         |--3--|                            |--3--|                   
  E.   S S  S  S S E.  E   S S E     E.   S S  S  S S E.  E   S S E   
----------------------------------|----------------------------------|
-------------------5--------------|-------------------5--------------|
--2~---2-0h-2p-0-------5~----4----|--2~---2-0h-2p-0-------5~----4----|
-----------------2---------7---5--|-----------------2---------7---5--|
----------------------------------|----------------------------------|
----------------------------------|----------------------------------|


  Verso Riff                                         
  PM         PM   PM PM   PM PM   PM PM   PM PM      
  S          S  S S  S  S S  S  S S  S  S S  S  S S  
----------------------------------------------------|
----------------------------------------------------|
----------------9-------9-------9-------9-------9-9-|
--7----------7--7-7--7--7-7--7--7-7--7--7-7--7--7-7-|
----------------------------------------------------|
----------------------------------------------------|


  PM PM   PM PM   PM PM             
  S  S  S S  S  S S  S  E.  E.  E   
-----------------------------------|
-----------------------------------|
--------7-------7-------5---4------|
--5--5--5-5--5--5-5--5--5---5---5--|
--------------------------------5--|
-----------------------------------|


  PM PM   PM PM   PM PM   PM PM   PM PM      
  S  S  S S  S  S S  S  S S  S  S S  S  S S  
--------------------------------------------|
--------------------------------------------|
--------9-------9-------9-------9-------9-9-|
--7--7--7-7--7--7-7--7--7-7--7--7-7--7--7-7-|
--------------------------------------------|
--------------------------------------------|


  PM PM   PM PM   PM PM             
  S  S  S S  S  S S  S  E.  E.  E   
-----------------------------------|
-----------------------------------|
--------7-------7-------5---4------|
--5--5--5-5--5--5-5--5--5---5---5--|
--------------------------------5--|
-----------------------------------|


  PM PM   PM PM   PM PM   PM PM   PM PM      
  S  S  S S  S  S S  S  S S  S  S S  S  S S  
--------------------------------------------|
--------------------------------------------|
--------9-------9-------9-------9-------9-9-|
--7--7--7-7--7--7-7--7--7-7--7--7-7--7--7-7-|
--------------------------------------------|
--------------------------------------------|


  PM PM   PM PM   PM PM             
  S  S  S S  S  S S  S  E.  E.  E   
-----------------------------------|
-----------------------------------|
--------7-------7-------5---4------|
--5--5--5-5--5--5-5--5--5---5---5--|
--------------------------------5--|
-----------------------------------|


  PM PM   PM PM   PM PM   PM PM   PM PM      
  S  S  S S  S  S S  S  S S  S  S S  S  S S  
--------------------------------------------|
--------------------------------------------|
--------9-------9-------9-------9-------9-9-|
--7--7--7-7--7--7-7--7--7-7--7--7-7--7--7-7-|
--------------------------------------------|
--------------------------------------------|


                                      Coro                       
  PM PM   PM PM   PM PM                                          
  S  S  S S  S  S S  S  E.  E.  E     E    S S Q    E  S S Q     
-----------------------------------|----------------------------|
-----------------------------------|----------------------------|
--------7-------7-------5---4------|--5------5-L----------------|
--5--5--5-5--5--5-5--5--5---5---5--|--5----5-5-L----5----5-L----|
--------------------------------5--|--3----3-3-L----5--5-5-L----|
-----------------------------------|----------------3--3-3-L----|


  E  S S Q     E.    Q      S    E  S S Q    E  S S Q     
------------------------------|--------------------------|
--------------17----17--------|--------------------------|
--7----7-L----19b---19br------|--5----5-L----------------|
--7--7-7-L--------------------|--5--5-5-L----5----5-L----|
--5--5-5-L--------------------|--3--3-3-L----5--5-5-L----|
------------------------------|--------------3--3-3-L----|


  E  S S Q     Q      Q        E  S S Q    E  S S Q     
----------------------------|--------------------------|
--------------20------------|--------------------------|
--7----7-L----22b-----------|--5----5-L----------------|
--7--7-7-L------------------|--5--5-5-L----5----5-L----|
--5--5-5-L------------------|--3--3-3-L----5--5-5-L----|
---------------------19\----|--------------3--3-3-L----|


                                       SH                                
               |---3---|  |---3---|                                      
  E  S S Q     S   S   S  S   S   S    Q        E  S S Q    E  S S Q     
---------------------------------------------|--------------------------|
--------------20p-19p-17-20p-19p-17-<>20b----|--------------------------|
--7----7-L-----------------------------------|--5----5-L----------------|
--7--7-7-L-----------------------------------|--5--5-5-L----5----5-L----|
--5--5-5-L-----------------------------------|--3--3-3-L----5--5-5-L----|
---------------------------------------------|--------------3--3-3-L----|


  Outro                                                                  
                                          |----3----|    |----3----|     
  W                   W                   Q    Q    Q    Q    Q    Q     
-------------------|-------------------|--------------------------------|
-------------------|-------------------|--------------------------------|
-------------------|-------------------|--------------------------------|
--7----------------|--L----------------|--------------------------------|
--7----------------|--L----------------|-------7---------7---------7----|
--5----------------|--L----------------|-------5---------5---------5----|


  |----3----|            |--3--|  |--3--|  
  Q    Q    Q     Q      S  S  S  S  S  S  
-----------------17-----17-19-20-19-17-20-|
-----------------20b----------------------|
------------------------------------------|
------------------------------------------|
-------7----------------------------------|
-------5----------------------------------|


   |--3--|  |------------3------------|  |--3--|  |--3--|  |--3--|  
   S  S  S  S  S  E    Q     S  S  S  S  S  S  S  S  S  S  S  S  S  
--17----------17------17----17----------17----------17----------17-|
-----20-17-20----20b-----------20-17-20----20-17-20----20-17-20----|
-------------------------------------------------------------------|
-------------------------------------------------------------------|
-------------------------------------------------------------------|
-------------------------------------------------------------------|


   |--3--|  |--3--|  |--3--|  |--3--|  |--3--|          
   S  S  S  S  S  S  S  S  S  S  S  S  S  S  S  Q.      
-----------17----------17------------------------------|
--20-17-20----20-17-20----20-17-20-17----------17------|
--------------------------------------16-17-19---------|
-------------------------------------------------------|
-------------------------------------------------------|
-------------------------------------------------------|


  E.  E.   E  H          
-----------------------||
-----------------------||
-----------------------||
-----------------------||
--7---L\---------------||
--5---L\---------------||




Guitar #2:

Adrian Smith

          Intro                                 
     S    W                   W                 
E||----|-------------------|-------------------|
B||----|-------------------|-------------------|
G||----|-------------------|-------------------|
D||----|-------------------|-------------------|
A||----|-------------------|-------------------|
E||----|-------------------|-------------------|


         |--3--|                            |--3--|                   
  E.   S S  S  S S E.  E   S S E     E.   S S  S  S S E.  E   S S E   
----------------------------------|----------------------------------|
----------------------------------|----------------------------------|
--5~---5-4h-5p-4------------------|--5~---5-4h-5p-4------------------|
-----------------7-5---4~----4----|-----------------7-5---4~----4----|
---------------------------7---5--|---------------------------7---5--|
----------------------------------|----------------------------------|


  Riff A                                                                
           |--3--|                            |--3--|                   
  E.     S S  S  S S E.  E   S S E     E.   S S  S  S S E.  E   S S E   
------------------------------------|----------------------------------|
------------------------------------|----------------------------------|
--5~-----5-4h-5p-4------------------|--5~---5-4h-5p-4------------------|
-------------------7-5---4~----4----|-----------------7-5---4~----4----|
-----------------------------7---5--|---------------------------7---5--|
------------------------------------|----------------------------------|


         |--3--|                            |--3--|                   
  E.   S S  S  S S E.  E   S S E     E.   S S  S  S S E.  E   S S E   
----------------------------------|----------------------------------|
----------------------------------|----------------------------------|
--5~---5-4h-5p-4------------------|--5~---5-4h-5p-4------------------|
-----------------7-5---4~----4----|-----------------7-5---4~----4----|
---------------------------7---5--|---------------------------7---5--|
----------------------------------|----------------------------------|


  Verso Riff                                         
  PM         PM   PM PM   PM PM   PM PM   PM PM      
  S          S  S S  S  S S  S  S S  S  S S  S  S S  
----------------------------------------------------|
----------------------------------------------------|
----------------------------------------------------|
----------------------------------------------------|
----------------7-------7-------7-------7-------7-7-|
--5----------5--5-5--5--5-5--5--5-5--5--5-5--5--5-5-|


  PM PM   PM PM   PM PM             
  S  S  S S  S  S S  S  E.  E.  E   
-----------------------------------|
-----------------------------------|
-----------------------------------|
-----------------------------------|
--------5-------5-------5---5---5--|
--3--3--3-3--3--3-3--3--3---3---3--|


  PM PM   PM PM   PM PM   PM PM   PM PM      
  S  S  S S  S  S S  S  S S  S  S S  S  S S  
--------------------------------------------|
--------------------------------------------|
--------------------------------------------|
--------------------------------------------|
--------7-------7-------7-------7-------7-7-|
--5--5--5-5--5--5-5--5--5-5--5--5-5--5--5-5-|


  PM PM   PM PM   PM PM             
  S  S  S S  S  S S  S  E.  E.  E   
-----------------------------------|
-----------------------------------|
-----------------------------------|
-----------------------------------|
--------5-------5-------5---5---5--|
--3--3--3-3--3--3-3--3--3---3---3--|


  PM PM   PM PM   PM PM   PM PM   PM PM      
  S  S  S S  S  S S  S  S S  S  S S  S  S S  
--------------------------------------------|
--------------------------------------------|
--------------------------------------------|
--------------------------------------------|
--------7-------7-------7-------7-------7-7-|
--5--5--5-5--5--5-5--5--5-5--5--5-5--5--5-5-|


  PM PM   PM PM   PM PM             
  S  S  S S  S  S S  S  E.  E.  E   
-----------------------------------|
-----------------------------------|
-----------------------------------|
-----------------------------------|
--------5-------5-------5---5---5--|
--3--3--3-3--3--3-3--3--3---3---3--|


  PM PM   PM PM   PM PM   PM PM   PM PM      
  S  S  S S  S  S S  S  S S  S  S S  S  S S  
--------------------------------------------|
--------------------------------------------|
--------------------------------------------|
--------------------------------------------|
--------7-------7-------7-------7-------7-7-|
--5--5--5-5--5--5-5--5--5-5--5--5-5--5--5-5-|


                                      Riff A                             
  PM PM   PM PM   PM PM                                                  
                                               |--3--|                   
  S  S  S S  S  S S  S  E.  E.  E     E.     S S  S  S S E.  E   S S E   
-----------------------------------|------------------------------------|
-----------------------------------|------------------------------------|
-----------------------------------|--5~-----5-4h-5p-4------------------|
-----------------------------------|-------------------7-5---4~----4----|
--------5-------5-------5---5---5--|-----------------------------7---5--|
--3--3--3-3--3--3-3--3--3---3---3--|------------------------------------|


         |--3--|                            |--3--|                   
  E.   S S  S  S S E.  E   S S E     E.   S S  S  S S E.  E   S S E   
----------------------------------|----------------------------------|
----------------------------------|----------------------------------|
--5~---5-4h-5p-4------------------|--5~---5-4h-5p-4------------------|
-----------------7-5---4~----4----|-----------------7-5---4~----4----|
---------------------------7---5--|---------------------------7---5--|
----------------------------------|----------------------------------|


                                     Coro                         
         |--3--|                                                  
  E.   S S  S  S S E.  E   S S E     E    S E  S E  E  S E  S E   
----------------------------------|------------------------------|
----------------------------------|------------------------------|
--5~---5-4h-5p-4------------------|--5----x-5--x-5---------------|
-----------------7-5---4~----4----|--5----x-5--x-5--5--x-5--x-5--|
---------------------------7---5--|--3----x-3--x-3--5--x-5--x-5--|
----------------------------------|-----------------3--x-3--x-3--|


  E  S E  S E  E  S E  S E     E  S E  S E  E  S E  S E   
----------------------------|----------------------------|
----------------------------|----------------------------|
--7--x-7--x-7---------------|--5--x-5--x-5---------------|
--7--x-7--x-7--7--x-7--x-7--|--5--x-5--x-5--5--x-5--x-5--|
--5--x-5--x-5--7--x-7--x-7--|--3--x-3--x-3--5--x-5--x-5--|
---------------5--x-5--x-5--|---------------3--x-3--x-3--|


  E  S E  S E  E  S E  S E     E  S E  S E  E  S E  S E   
----------------------------|----------------------------|
----------------------------|----------------------------|
--7--x-7--x-7---------------|--5--x-5--x-5---------------|
--7--x-7--x-7--7--x-7--x-7--|--5--x-5--x-5--5--x-5--x-5--|
--5--x-5--x-5--7--x-7--x-7--|--3--x-3--x-3--5--x-5--x-5--|
---------------5--x-5--x-5--|---------------3--x-3--x-3--|


  E  S E  S E  E  S E  S E     E  S E  S E  E  S E  S E   
----------------------------|----------------------------|
----------------------------|----------------------------|
--7--x-7--x-7---------------|--5--x-5--x-5---------------|
--7--x-7--x-7--7--x-7--x-7--|--5--x-5--x-5--5--x-5--x-5--|
--5--x-5--x-5--7--x-7--x-7--|--3--x-3--x-3--5--x-5--x-5--|
---------------5--x-5--x-5--|---------------3--x-3--x-3--|


                              Riff A                             
               tr                                                
                                       |--3--|                   
  E  S E  S E  H              E.     S S  S  S S E.  E   S S E   
---------------------------|------------------------------------|
---------------------------|------------------------------------|
--7--x-7--x-7--5(4)--------|--5~-----5-4h-5p-4------------------|
--7--x-7--x-7--------------|-------------------7-5---4~----4----|
--5--x-5--x-5--------------|-----------------------------7---5--|
---------------------------|------------------------------------|


         |--3--|                            |--3--|                   
  E.   S S  S  S S E.  E   S S E     E.   S S  S  S S E.  E   S S E   
----------------------------------|----------------------------------|
----------------------------------|----------------------------------|
--5~---5-4h-5p-4------------------|--5~---5-4h-5p-4------------------|
-----------------7-5---4~----4----|-----------------7-5---4~----4----|
---------------------------7---5--|---------------------------7---5--|
----------------------------------|----------------------------------|


         |--3--|                   
  E.   S S  S  S S E.  E   S S E   
----------------------------------|
----------------------------------|
--5~---5-4h-5p-4------------------|
-----------------7-5---4~----4----|
---------------------------7---5--|
----------------------------------|


  Verso Riff                                         
  PM         PM   PM PM   PM PM   PM PM   PM PM      
  S          S  S S  S  S S  S  S S  S  S S  S  S S  
----------------------------------------------------|
----------------------------------------------------|
----------------------------------------------------|
----------------------------------------------------|
----------------7-------7-------7-------7-------7-7-|
--5----------5--5-5--5--5-5--5--5-5--5--5-5--5--5-5-|


  PM PM   PM PM   PM PM             
  S  S  S S  S  S S  S  E.  E.  E   
-----------------------------------|
-----------------------------------|
-----------------------------------|
-----------------------------------|
--------5-------5-------5---5---5--|
--3--3--3-3--3--3-3--3--3---3---3--|


  PM PM   PM PM   PM PM   PM PM   PM PM      
  S  S  S S  S  S S  S  S S  S  S S  S  S S  
--------------------------------------------|
--------------------------------------------|
--------------------------------------------|
--------------------------------------------|
--------7-------7-------7-------7-------7-7-|
--5--5--5-5--5--5-5--5--5-5--5--5-5--5--5-5-|


  PM PM   PM PM   PM PM             
  S  S  S S  S  S S  S  E.  E.  E   
-----------------------------------|
-----------------------------------|
-----------------------------------|
-----------------------------------|
--------5-------5-------5---5---5--|
--3--3--3-3--3--3-3--3--3---3---3--|


  PM PM   PM PM   PM PM   PM PM   PM PM      
  S  S  S S  S  S S  S  S S  S  S S  S  S S  
--------------------------------------------|
--------------------------------------------|
--------------------------------------------|
--------------------------------------------|
--------7-------7-------7-------7-------7-7-|
--5--5--5-5--5--5-5--5--5-5--5--5-5--5--5-5-|


  PM PM   PM PM   PM PM             
  S  S  S S  S  S S  S  E.  E.  E   
-----------------------------------|
-----------------------------------|
-----------------------------------|
-----------------------------------|
--------5-------5-------5---5---5--|
--3--3--3-3--3--3-3--3--3---3---3--|


  PM PM   PM PM   PM PM   PM PM   PM PM      
  S  S  S S  S  S S  S  S S  S  S S  S  S S  
--------------------------------------------|
--------------------------------------------|
--------------------------------------------|
--------------------------------------------|
--------7-------7-------7-------7-------7-7-|
--5--5--5-5--5--5-5--5--5-5--5--5-5--5--5-5-|


                                      Coro                         
  PM PM   PM PM   PM PM                                            
  S  S  S S  S  S S  S  E.  E.  E     E    S E  S E  E  S E  S E   
-----------------------------------|------------------------------|
-----------------------------------|------------------------------|
-----------------------------------|--5----x-5--x-5---------------|
-----------------------------------|--5----x-5--x-5--5--x-5--x-5--|
--------5-------5-------5---5---5--|--3----x-3--x-3--5--x-5--x-5--|
--3--3--3-3--3--3-3--3--3---3---3--|-----------------3--x-3--x-3--|


  E  S E  S E  E  S E  S E     E  S E  S E  E  S E  S E   
----------------------------|----------------------------|
----------------------------|----------------------------|
--7--x-7--x-7---------------|--5--x-5--x-5---------------|
--7--x-7--x-7--7--x-7--x-7--|--5--x-5--x-5--5--x-5--x-5--|
--5--x-5--x-5--7--x-7--x-7--|--3--x-3--x-3--5--x-5--x-5--|
---------------5--x-5--x-5--|---------------3--x-3--x-3--|


  E  S E  S E  E  S E  S E     E  S E  S E  E  S E  S E   
----------------------------|----------------------------|
----------------------------|----------------------------|
--7--x-7--x-7---------------|--5--x-5--x-5---------------|
--7--x-7--x-7--7--x-7--x-7--|--5--x-5--x-5--5--x-5--x-5--|
--5--x-5--x-5--7--x-7--x-7--|--3--x-3--x-3--5--x-5--x-5--|
---------------5--x-5--x-5--|---------------3--x-3--x-3--|


                                                            Break             
  E  S E  S E  E  S E  S E     E  S E  S E  E  S E  S E     W                 
----------------------------|----------------------------|-------------------|
----------------------------|----------------------------|-------------------|
--7--x-7--x-7---------------|--5--x-5--x-5---------------|--7----------------|
--7--x-7--x-7--7--x-7--x-7--|--5--x-5--x-5--5--x-5--x-5--|--7----------------|
--5--x-5--x-5--7--x-7--x-7--|--3--x-3--x-3--5--x-5--x-5--|--5----------------|
---------------5--x-5--x-5--|---------------3--x-3--x-3--|-------------------|


                                             Interludio                        
  W                   W                      E.         E.   E.   E.   E   E   
-------------------|-------------------||-------------------------------------|
-------------------|-------------------||---15b--------15---13---12---13--10--|
--L----------------|-------------------||*------------------------------------|
--L----------------|-------------------||*------------------------------------|
--L----------------|-------------------||-------------------------------------|
-------------------|-------------------||-------------------------------------|


                                                         Bass Riff         
   E.   E.   E.   E.   E   E   3x   W                    W                 
-------------------------------||---------------------|-------------------|
------------10---12---13--15---||--17~----------------|-------------------|
--10---12---------------------*||---------------------|-------------------|
------------------------------*||---------------------|-------------------|
-------------------------------||---------------------|-------------------|
-------------------------------||---------------------|-------------------|


  W                   W                   S S S S S S Q    Q.      
-------------------|-------------------|--------------------------|
-------------------|-------------------|--------------------------|
-------------------|-------------------|--------------------------|
-------------------|-------------------|----------7---5-----------|
-------------------|-------------------|--5-5-5-5-5---3-----------|
-------------------|-------------------|--------------------------|


  Intro Riff                                                               
                                                 |--3--|                   
  W                   W                   E.   S S  S  S S E.  E   S S E   
-------------------|-------------------|----------------------------------|
-------------------|-------------------|----------------------------------|
-------------------|-------------------|--5~---5-4h-5p-4------------------|
-------------------|-------------------|-----------------7-5---4~----4----|
-------------------|-------------------|---------------------------7---5--|
-------------------|-------------------|----------------------------------|


                                     Riff A                             
         |--3--|                              |--3--|                   
  E.   S S  S  S S E.  E   S S E     E.     S S  S  S S E.  E   S S E   
----------------------------------|------------------------------------|
----------------------------------|------------------------------------|
--5~---5-4h-5p-4------------------|--5~-----5-4h-5p-4------------------|
-----------------7-5---4~----4----|-------------------7-5---4~----4----|
---------------------------7---5--|-----------------------------7---5--|
----------------------------------|------------------------------------|


         |--3--|                            |--3--|                   
  E.   S S  S  S S E.  E   S S E     E.   S S  S  S S E.  E   S S E   
----------------------------------|----------------------------------|
----------------------------------|----------------------------------|
--5~---5-4h-5p-4------------------|--5~---5-4h-5p-4------------------|
-----------------7-5---4~----4----|-----------------7-5---4~----4----|
---------------------------7---5--|---------------------------7---5--|
----------------------------------|----------------------------------|


         |--3--|                   
  E.   S S  S  S S E.  E   S S E   
----------------------------------|
----------------------------------|
--5~---5-4h-5p-4------------------|
-----------------7-5---4~----4----|
---------------------------7---5--|
----------------------------------|


  Verso Riff                                         
  PM         PM   PM PM   PM PM   PM PM   PM PM      
  S          S  S S  S  S S  S  S S  S  S S  S  S S  
----------------------------------------------------|
----------------------------------------------------|
----------------------------------------------------|
----------------------------------------------------|
----------------7-------7-------7-------7-------7-7-|
--5----------5--5-5--5--5-5--5--5-5--5--5-5--5--5-5-|


  PM PM   PM PM   PM PM             
  S  S  S S  S  S S  S  E.  E.  E   
-----------------------------------|
-----------------------------------|
-----------------------------------|
-----------------------------------|
--------5-------5-------5---5---5--|
--3--3--3-3--3--3-3--3--3---3---3--|


  PM PM   PM PM   PM PM   PM PM   PM PM      
  S  S  S S  S  S S  S  S S  S  S S  S  S S  
--------------------------------------------|
--------------------------------------------|
--------------------------------------------|
--------------------------------------------|
--------7-------7-------7-------7-------7-7-|
--5--5--5-5--5--5-5--5--5-5--5--5-5--5--5-5-|


  PM PM   PM PM   PM PM             
  S  S  S S  S  S S  S  E.  E.  E   
-----------------------------------|
-----------------------------------|
-----------------------------------|
-----------------------------------|
--------5-------5-------5---5---5--|
--3--3--3-3--3--3-3--3--3---3---3--|


  PM PM   PM PM   PM PM   PM PM   PM PM      
  S  S  S S  S  S S  S  S S  S  S S  S  S S  
--------------------------------------------|
--------------------------------------------|
--------------------------------------------|
--------------------------------------------|
--------7-------7-------7-------7-------7-7-|
--5--5--5-5--5--5-5--5--5-5--5--5-5--5--5-5-|


  PM PM   PM PM   PM PM             
  S  S  S S  S  S S  S  E.  E.  E   
-----------------------------------|
-----------------------------------|
-----------------------------------|
-----------------------------------|
--------5-------5-------5---5---5--|
--3--3--3-3--3--3-3--3--3---3---3--|


  PM PM   PM PM   PM PM   PM PM   PM PM      
  S  S  S S  S  S S  S  S S  S  S S  S  S S  
--------------------------------------------|
--------------------------------------------|
--------------------------------------------|
--------------------------------------------|
--------7-------7-------7-------7-------7-7-|
--5--5--5-5--5--5-5--5--5-5--5--5-5--5--5-5-|


                                      Coro                         
  PM PM   PM PM   PM PM                                            
  S  S  S S  S  S S  S  E.  E.  E     E    S E  S E  E  S E  S E   
-----------------------------------|------------------------------|
-----------------------------------|------------------------------|
-----------------------------------|--5----x-5--x-5---------------|
-----------------------------------|--5----x-5--x-5--5--x-5--x-5--|
--------5-------5-------5---5---5--|--3----x-3--x-3--5--x-5--x-5--|
--3--3--3-3--3--3-3--3--3---3---3--|-----------------3--x-3--x-3--|


  E  S E  S E  E  S E  S E     E  S E  S E  E  S E  S E   
----------------------------|----------------------------|
----------------------------|----------------------------|
--7--x-7--x-7---------------|--5--x-5--x-5---------------|
--7--x-7--x-7--7--x-7--x-7--|--5--x-5--x-5--5--x-5--x-5--|
--5--x-5--x-5--7--x-7--x-7--|--3--x-3--x-3--5--x-5--x-5--|
---------------5--x-5--x-5--|---------------3--x-3--x-3--|


  E  S E  S E  E  S E  S E     E  S E  S E  E  S E  S E   
----------------------------|----------------------------|
----------------------------|----------------------------|
--7--x-7--x-7---------------|--5--x-5--x-5---------------|
--7--x-7--x-7--7--x-7--x-7--|--5--x-5--x-5--5--x-5--x-5--|
--5--x-5--x-5--7--x-7--x-7--|--3--x-3--x-3--5--x-5--x-5--|
---------------5--x-5--x-5--|---------------3--x-3--x-3--|


                                                            Outro             
  E  S E  S E  E  S E  S E     E  S E  S E  E  S E  S E     W                 
----------------------------|----------------------------|-------------------|
----------------------------|----------------------------|-------------------|
--7--x-7--x-7---------------|--5--x-5--x-5---------------|-------------------|
--7--x-7--x-7--7--x-7--x-7--|--5--x-5--x-5--5--x-5--x-5--|--7----------------|
--5--x-5--x-5--7--x-7--x-7--|--3--x-3--x-3--5--x-5--x-5--|--7----------------|
---------------5--x-5--x-5--|---------------3--x-3--x-3--|--5----------------|


                      |----3----|    |----3----|       |----3----|              
  W                   Q    Q    Q    Q    Q    Q       Q    Q    Q    H         
-------------------|--------------------------------|--------------------------|
-------------------|--------------------------------|--------------------------|
-------------------|--------------------------------|--------------------------|
--L----------------|-------7---------7---------7----|-------7---------7--------|
--L----------------|-------7---------7---------7----|-------7---------7--------|
--L----------------|-------5---------5---------5----|-------5---------5--------|


  W                   W                   E.  E.   E  H          
-------------------|-------------------|-----------------------||
-------------------|-------------------|-----------------------||
-------------------|-------------------|-----------------------||
--L----------------|--L----------------|--7---L\---------------||
--L----------------|--L----------------|--7---L\---------------||
--L----------------|--L----------------|--5---L\---------------||




Guitar #3:
                                  
Janick Gers

          Intro                                 
     S    W                   W                 
E||----|-------------------|-------------------|
B||----|-------------------|-------------------|
G||----|-------------------|-------------------|
D||----|-------------------|-------------------|
A||----|-------------------|-------------------|
E||----|-------------------|-------------------|


         |--3--|                            |--3--|                   
  E.   S S  S  S S E.  E   S S E     E.   S S  S  S S E.  E   S S E   
----------------------------------|----------------------------------|
----------------------------------|----------------------------------|
--5~---5-4h-5p-4------------------|--5~---5-4h-5p-4------------------|
-----------------7-5---4~----4----|-----------------7-5---4~----4----|
---------------------------7---5--|---------------------------7---5--|
----------------------------------|----------------------------------|


  Riff A                                                                
           |--3--|                            |--3--|                   
  E.     S S  S  S S E.  E   S S E     E.   S S  S  S S E.  E   S S E   
------------------------------------|----------------------------------|
------------------------------------|----------------------------------|
--5~-----5-4h-5p-4------------------|--5~---5-4h-5p-4------------------|
-------------------7-5---4~----4----|-----------------7-5---4~----4----|
-----------------------------7---5--|---------------------------7---5--|
------------------------------------|----------------------------------|


         |--3--|                            |--3--|                   
  E.   S S  S  S S E.  E   S S E     E.   S S  S  S S E.  E   S S E   
----------------------------------|----------------------------------|
----------------------------------|----------------------------------|
--5~---5-4h-5p-4------------------|--5~---5-4h-5p-4------------------|
-----------------7-5---4~----4----|-----------------7-5---4~----4----|
---------------------------7---5--|---------------------------7---5--|
----------------------------------|----------------------------------|


  Verso Riff                                         
  PM         PM   PM PM   PM PM   PM PM   PM PM      
  S          S  S S  S  S S  S  S S  S  S S  S  S S  
----------------------------------------------------|
----------------------------------------------------|
----------------------------------------------------|
----------------------------------------------------|
----------------7-------7-------7-------7-------7-7-|
--5----------5--5-5--5--5-5--5--5-5--5--5-5--5--5-5-|


  PM PM   PM PM   PM PM             
  S  S  S S  S  S S  S  E.  E.  E   
-----------------------------------|
-----------------------------------|
-----------------------------------|
-----------------------------------|
--------5-------5-------5---5---5--|
--3--3--3-3--3--3-3--3--3---3---3--|


  PM PM   PM PM   PM PM   PM PM   PM PM      
  S  S  S S  S  S S  S  S S  S  S S  S  S S  
--------------------------------------------|
--------------------------------------------|
--------------------------------------------|
--------------------------------------------|
--------7-------7-------7-------7-------7-7-|
--5--5--5-5--5--5-5--5--5-5--5--5-5--5--5-5-|


  PM PM   PM PM   PM PM             
  S  S  S S  S  S S  S  E.  E.  E   
-----------------------------------|
-----------------------------------|
-----------------------------------|
-----------------------------------|
--------5-------5-------5---5---5--|
--3--3--3-3--3--3-3--3--3---3---3--|


  PM PM   PM PM   PM PM   PM PM   PM PM      
  S  S  S S  S  S S  S  S S  S  S S  S  S S  
--------------------------------------------|
--------------------------------------------|
--------------------------------------------|
--------------------------------------------|
--------7-------7-------7-------7-------7-7-|
--5--5--5-5--5--5-5--5--5-5--5--5-5--5--5-5-|


  PM PM   PM PM   PM PM             
  S  S  S S  S  S S  S  E.  E.  E   
-----------------------------------|
-----------------------------------|
-----------------------------------|
-----------------------------------|
--------5-------5-------5---5---5--|
--3--3--3-3--3--3-3--3--3---3---3--|


  PM PM   PM PM   PM PM   PM PM   PM PM      
  S  S  S S  S  S S  S  S S  S  S S  S  S S  
--------------------------------------------|
--------------------------------------------|
--------------------------------------------|
--------------------------------------------|
--------7-------7-------7-------7-------7-7-|
--5--5--5-5--5--5-5--5--5-5--5--5-5--5--5-5-|


                                      Riff A                             
  PM PM   PM PM   PM PM                                                  
                                               |--3--|                   
  S  S  S S  S  S S  S  E.  E.  E     E.     S S  S  S S E.  E   S S E   
-----------------------------------|------------------------------------|
-----------------------------------|------------------------------------|
-----------------------------------|--5~-----5-4h-5p-4------------------|
-----------------------------------|-------------------7-5---4~----4----|
--------5-------5-------5---5---5--|-----------------------------7---5--|
--3--3--3-3--3--3-3--3--3---3---3--|------------------------------------|


         |--3--|                            |--3--|                   
  E.   S S  S  S S E.  E   S S E     E.   S S  S  S S E.  E   S S E   
----------------------------------|----------------------------------|
----------------------------------|----------------------------------|
--5~---5-4h-5p-4------------------|--5~---5-4h-5p-4------------------|
-----------------7-5---4~----4----|-----------------7-5---4~----4----|
---------------------------7---5--|---------------------------7---5--|
----------------------------------|----------------------------------|


                                     Coro                         
         |--3--|                                                  
  E.   S S  S  S S E.  E   S S E     E    S E  S E  E  S E  S E   
----------------------------------|------------------------------|
----------------------------------|-----------------3--x-3--x-3--|
--5~---5-4h-5p-4------------------|--5----x-5--x-5--x--x-x--x-x--|
-----------------7-5---4~----4----|--5----x-5--x-5--5--x-5--x-5--|
---------------------------7---5--|--3----x-3--x-3--5--x-5--x-5--|
----------------------------------|------------------------------|


  E  S E  S E  E  S E  S E     E  S E  S E  E  S E  S E   
----------------------------|----------------------------|
---------------5--x-5--x-5--|---------------3--x-3--x-3--|
--7--x-7--x-7--x--x-x--x-x--|--5--x-5--x-5--x--x-x--x-x--|
--7--x-7--x-7--7--x-7--x-7--|--5--x-5--x-5--5--x-5--x-5--|
--5--x-5--x-5--7--x-7--x-7--|--3--x-3--x-3--5--x-5--x-5--|
----------------------------|----------------------------|


  E  S E  S E  E  S E  S E     E  S E  S E  E  S E  S E   
----------------------------|----------------------------|
---------------5--x-5--x-5--|---------------3--x-3--x-3--|
--7--x-7--x-7--x--x-x--x-x--|--5--x-5--x-5--x--x-x--x-x--|
--7--x-7--x-7--7--x-7--x-7--|--5--x-5--x-5--5--x-5--x-5--|
--5--x-5--x-5--7--x-7--x-7--|--3--x-3--x-3--5--x-5--x-5--|
----------------------------|----------------------------|


  E  S E  S E  E  S E  S E     E  S E  S E  E  S E  S E   
----------------------------|----------------------------|
---------------5--x-5--x-5--|---------------3--x-3--x-3--|
--7--x-7--x-7--x--x-x--x-x--|--5--x-5--x-5--x--x-x--x-x--|
--7--x-7--x-7--7--x-7--x-7--|--5--x-5--x-5--5--x-5--x-5--|
--5--x-5--x-5--7--x-7--x-7--|--3--x-3--x-3--5--x-5--x-5--|
----------------------------|----------------------------|


                               Riff A                             
                                        |--3--|                   
  E  S E  S E  E  S E  S E     E.     S S  S  S S E.  E   S S E   
----------------------------|------------------------------------|
---------------5--x-5--x-5--|------------------------------------|
--7--x-7--x-7--x--x-x--x-x--|--5~-----5-4h-5p-4------------------|
--7--x-7--x-7--7--x-7--x-7--|-------------------7-5---4~----4----|
--5--x-5--x-5--7--x-7--x-7--|-----------------------------7---5--|
----------------------------|------------------------------------|


         |--3--|                            |--3--|                   
  E.   S S  S  S S E.  E   S S E     E.   S S  S  S S E.  E   S S E   
----------------------------------|----------------------------------|
----------------------------------|----------------------------------|
--5~---5-4h-5p-4------------------|--5~---5-4h-5p-4------------------|
-----------------7-5---4~----4----|-----------------7-5---4~----4----|
---------------------------7---5--|---------------------------7---5--|
----------------------------------|----------------------------------|


         |--3--|                   
  E.   S S  S  S S E.  E   S S E   
----------------------------------|
----------------------------------|
--5~---5-4h-5p-4------------------|
-----------------7-5---4~----4----|
---------------------------7---5--|
----------------------------------|


  Verso Riff                                         
  PM         PM   PM PM   PM PM   PM PM   PM PM      
  S          S  S S  S  S S  S  S S  S  S S  S  S S  
----------------------------------------------------|
----------------------------------------------------|
----------------------------------------------------|
----------------------------------------------------|
----------------7-------7-------7-------7-------7-7-|
--5----------5--5-5--5--5-5--5--5-5--5--5-5--5--5-5-|


  PM PM   PM PM   PM PM             
  S  S  S S  S  S S  S  E.  E.  E   
-----------------------------------|
-----------------------------------|
-----------------------------------|
-----------------------------------|
--------5-------5-------5---5---5--|
--3--3--3-3--3--3-3--3--3---3---3--|


  PM PM   PM PM   PM PM   PM PM   PM PM      
  S  S  S S  S  S S  S  S S  S  S S  S  S S  
--------------------------------------------|
--------------------------------------------|
--------------------------------------------|
--------------------------------------------|
--------7-------7-------7-------7-------7-7-|
--5--5--5-5--5--5-5--5--5-5--5--5-5--5--5-5-|


  PM PM   PM PM   PM PM             
  S  S  S S  S  S S  S  E.  E.  E   
-----------------------------------|
-----------------------------------|
-----------------------------------|
-----------------------------------|
--------5-------5-------5---5---5--|
--3--3--3-3--3--3-3--3--3---3---3--|


  PM PM   PM PM   PM PM   PM PM   PM PM      
  S  S  S S  S  S S  S  S S  S  S S  S  S S  
--------------------------------------------|
--------------------------------------------|
--------------------------------------------|
--------------------------------------------|
--------7-------7-------7-------7-------7-7-|
--5--5--5-5--5--5-5--5--5-5--5--5-5--5--5-5-|


  PM PM   PM PM   PM PM             
  S  S  S S  S  S S  S  E.  E.  E   
-----------------------------------|
-----------------------------------|
-----------------------------------|
-----------------------------------|
--------5-------5-------5---5---5--|
--3--3--3-3--3--3-3--3--3---3---3--|


  PM PM   PM PM   PM PM   PM PM   PM PM      
  S  S  S S  S  S S  S  S S  S  S S  S  S S  
--------------------------------------------|
--------------------------------------------|
--------------------------------------------|
--------------------------------------------|
--------7-------7-------7-------7-------7-7-|
--5--5--5-5--5--5-5--5--5-5--5--5-5--5--5-5-|


                                      Coro                         
  PM PM   PM PM   PM PM                                            
  S  S  S S  S  S S  S  E.  E.  E     E    S E  S E  E  S E  S E   
-----------------------------------|------------------------------|
-----------------------------------|-----------------3--x-3--x-3--|
-----------------------------------|--5----x-5--x-5--x--x-x--x-x--|
-----------------------------------|--5----x-5--x-5--5--x-5--x-5--|
--------5-------5-------5---5---5--|--3----x-3--x-3--5--x-5--x-5--|
--3--3--3-3--3--3-3--3--3---3---3--|------------------------------|


  E  S E  S E  E  S E  S E     E  S E  S E  E  S E  S E   
----------------------------|----------------------------|
---------------5--x-5--x-5--|---------------3--x-3--x-3--|
--7--x-7--x-7--x--x-x--x-x--|--5--x-5--x-5--x--x-x--x-x--|
--7--x-7--x-7--7--x-7--x-7--|--5--x-5--x-5--5--x-5--x-5--|
--5--x-5--x-5--7--x-7--x-7--|--3--x-3--x-3--5--x-5--x-5--|
----------------------------|----------------------------|


  E  S E  S E  E  S E  S E     E  S E  S E  E  S E  S E   
----------------------------|----------------------------|
---------------5--x-5--x-5--|---------------3--x-3--x-3--|
--7--x-7--x-7--x--x-x--x-x--|--5--x-5--x-5--x--x-x--x-x--|
--7--x-7--x-7--7--x-7--x-7--|--5--x-5--x-5--5--x-5--x-5--|
--5--x-5--x-5--7--x-7--x-7--|--3--x-3--x-3--5--x-5--x-5--|
----------------------------|----------------------------|


                                                            Break             
  E  S E  S E  E  S E  S E     E  S E  S E  E  S E  S E     W                 
----------------------------|----------------------------|-------------------|
---------------5--x-5--x-5--|---------------3--x-3--x-3--|-------------------|
--7--x-7--x-7--x--x-x--x-x--|--5--x-5--x-5--x--x-x--x-x--|--7----------------|
--7--x-7--x-7--7--x-7--x-7--|--5--x-5--x-5--5--x-5--x-5--|--7----------------|
--5--x-5--x-5--7--x-7--x-7--|--3--x-3--x-3--5--x-5--x-5--|--5----------------|
----------------------------|----------------------------|-------------------|


                                            Interludio                    
  W                   W                     E.         E.  E.  E.  E  E   
-------------------|-------------------||--------------------------------|
-------------------|-------------------||---5----------------------------|
--L----------------|-------------------||*-------------7---5---4---5-----|
--L----------------|-------------------||*----------------------------7--|
--L----------------|-------------------||--------------------------------|
-------------------|-------------------||--------------------------------|


                                                  Bass Riff         
  E.  E.  E.  E.  E  E   3x  W                    W                 
-------------------------||--------------------|-------------------|
-------------------------||--5~----------------|-------------------|
--------------4---5--7--*||--------------------|-------------------|
--3---5---7-------------*||--------------------|-------------------|
-------------------------||--------------------|-------------------|
-------------------------||--------------------|-------------------|


  W                   W                   S S S S S S Q    Q.      
-------------------|-------------------|--------------------------|
-------------------|-------------------|--------------------------|
-------------------|-------------------|--------------------------|
-------------------|-------------------|----------7---5-----------|
-------------------|-------------------|--5-5-5-5-5---3-----------|
-------------------|-------------------|--------------------------|


  Intro Riff                                                               
                                                 |--3--|                   
  W                   W                   E.   S S  S  S S E.  E   S S E   
-------------------|-------------------|----------------------------------|
-------------------|-------------------|----------------------------------|
-------------------|-------------------|--5~---5-4h-5p-4------------------|
-------------------|-------------------|-----------------7-5---4~----4----|
-------------------|-------------------|---------------------------7---5--|
-------------------|-------------------|----------------------------------|


                                     Riff A                             
         |--3--|                              |--3--|                   
  E.   S S  S  S S E.  E   S S E     E.     S S  S  S S E.  E   S S E   
----------------------------------|------------------------------------|
----------------------------------|------------------------------------|
--5~---5-4h-5p-4------------------|--5~-----5-4h-5p-4------------------|
-----------------7-5---4~----4----|-------------------7-5---4~----4----|
---------------------------7---5--|-----------------------------7---5--|
----------------------------------|------------------------------------|


         |--3--|                            |--3--|                   
  E.   S S  S  S S E.  E   S S E     E.   S S  S  S S E.  E   S S E   
----------------------------------|----------------------------------|
----------------------------------|----------------------------------|
--5~---5-4h-5p-4------------------|--5~---5-4h-5p-4------------------|
-----------------7-5---4~----4----|-----------------7-5---4~----4----|
---------------------------7---5--|---------------------------7---5--|
----------------------------------|----------------------------------|


         |--3--|                   
  E.   S S  S  S S E.  E   S S E   
----------------------------------|
----------------------------------|
--5~---5-4h-5p-4------------------|
-----------------7-5---4~----4----|
---------------------------7---5--|
----------------------------------|


  Verso Riff                                         
  PM         PM   PM PM   PM PM   PM PM   PM PM      
  S          S  S S  S  S S  S  S S  S  S S  S  S S  
----------------------------------------------------|
----------------------------------------------------|
----------------------------------------------------|
----------------------------------------------------|
----------------7-------7-------7-------7-------7-7-|
--5----------5--5-5--5--5-5--5--5-5--5--5-5--5--5-5-|


  PM PM   PM PM   PM PM             
  S  S  S S  S  S S  S  E.  E.  E   
-----------------------------------|
-----------------------------------|
-----------------------------------|
-----------------------------------|
--------5-------5-------5---5---5--|
--3--3--3-3--3--3-3--3--3---3---3--|


  PM PM   PM PM   PM PM   PM PM   PM PM      
  S  S  S S  S  S S  S  S S  S  S S  S  S S  
--------------------------------------------|
--------------------------------------------|
--------------------------------------------|
--------------------------------------------|
--------7-------7-------7-------7-------7-7-|
--5--5--5-5--5--5-5--5--5-5--5--5-5--5--5-5-|


  PM PM   PM PM   PM PM             
  S  S  S S  S  S S  S  E.  E.  E   
-----------------------------------|
-----------------------------------|
-----------------------------------|
-----------------------------------|
--------5-------5-------5---5---5--|
--3--3--3-3--3--3-3--3--3---3---3--|


  PM PM   PM PM   PM PM   PM PM   PM PM      
  S  S  S S  S  S S  S  S S  S  S S  S  S S  
--------------------------------------------|
--------------------------------------------|
--------------------------------------------|
--------------------------------------------|
--------7-------7-------7-------7-------7-7-|
--5--5--5-5--5--5-5--5--5-5--5--5-5--5--5-5-|


  PM PM   PM PM   PM PM             
  S  S  S S  S  S S  S  E.  E.  E   
-----------------------------------|
-----------------------------------|
-----------------------------------|
-----------------------------------|
--------5-------5-------5---5---5--|
--3--3--3-3--3--3-3--3--3---3---3--|


  PM PM   PM PM   PM PM   PM PM   PM PM      
  S  S  S S  S  S S  S  S S  S  S S  S  S S  
--------------------------------------------|
--------------------------------------------|
--------------------------------------------|
--------------------------------------------|
--------7-------7-------7-------7-------7-7-|
--5--5--5-5--5--5-5--5--5-5--5--5-5--5--5-5-|


                                      Coro                         
  PM PM   PM PM   PM PM                                            
  S  S  S S  S  S S  S  E.  E.  E     E    S E  S E  E  S E  S E   
-----------------------------------|------------------------------|
-----------------------------------|-----------------3--x-3--x-3--|
-----------------------------------|--5----x-5--x-5--x--x-x--x-x--|
-----------------------------------|--5----x-5--x-5--5--x-5--x-5--|
--------5-------5-------5---5---5--|--3----x-3--x-3--5--x-5--x-5--|
--3--3--3-3--3--3-3--3--3---3---3--|------------------------------|


  E  S E  S E  E  S E  S E     E  S E  S E  E  S E  S E   
----------------------------|----------------------------|
---------------5--x-5--x-5--|---------------3--x-3--x-3--|
--7--x-7--x-7--x--x-x--x-x--|--5--x-5--x-5--x--x-x--x-x--|
--7--x-7--x-7--7--x-7--x-7--|--5--x-5--x-5--5--x-5--x-5--|
--5--x-5--x-5--7--x-7--x-7--|--3--x-3--x-3--5--x-5--x-5--|
----------------------------|----------------------------|


  E  S E  S E  E  S E  S E     E  S E  S E  E  S E  S E   
----------------------------|----------------------------|
---------------5--x-5--x-5--|---------------3--x-3--x-3--|
--7--x-7--x-7--x--x-x--x-x--|--5--x-5--x-5--x--x-x--x-x--|
--7--x-7--x-7--7--x-7--x-7--|--5--x-5--x-5--5--x-5--x-5--|
--5--x-5--x-5--7--x-7--x-7--|--3--x-3--x-3--5--x-5--x-5--|
----------------------------|----------------------------|


                                                            Outro             
  E  S E  S E  E  S E  S E     E  S E  S E  E  S E  S E     W                 
----------------------------|----------------------------|-------------------|
---------------5--x-5--x-5--|---------------3--x-3--x-3--|-------------------|
--7--x-7--x-7--x--x-x--x-x--|--5--x-5--x-5--x--x-x--x-x--|-------------------|
--7--x-7--x-7--7--x-7--x-7--|--5--x-5--x-5--5--x-5--x-5--|--7----------------|
--5--x-5--x-5--7--x-7--x-7--|--3--x-3--x-3--5--x-5--x-5--|--7----------------|
----------------------------|----------------------------|--5----------------|


                      |----3----|    |----3----|       |----3----|              
  W                   Q    Q    Q    Q    Q    Q       Q    Q    Q    H         
-------------------|--------------------------------|--------------------------|
-------------------|--------------------------------|--------------------------|
-------------------|--------------------------------|--------------------------|
--L----------------|--------------------------------|--------------------------|
--L----------------|-------7---------7---------7----|-------7---------7--------|
--L----------------|-------5---------5---------5----|-------5---------5--------|


  W                   W                   E.  E.   E  H          
-------------------|-------------------|-----------------------||
-------------------|-------------------|-----------------------||
-------------------|-------------------|-----------------------||
-------------------|-------------------|-----------------------||
--L----------------|--L----------------|--7---L\---------------||
--L----------------|--L----------------|--5---L\---------------||




- Voice Melody:
                                  
Bruce Dickinson

                      Verso Riff                                            
                                  Won't    you    come in  to  my  room,    
  W                   E           T     T  T   T  S    E   E   E   E.   E   
-------------------|-------------12-----L-12---L-17---15--15--12--12-------|
-------------------|-------------------------------------------------------|
-------------------|-------------------------------------------------------|
-------------------|-------------------------------------------------------|
-------------------|-------------------------------------------------------|
-------------------|-------------------------------------------------------|


     I  wa nna show you all  my    wares.   
  S  S  S  E   S    S   E.   T  T  Q     S  
----10-10-10--10---10--12---15--L-12-------|
-------------------------------------------|
-------------------------------------------|
-------------------------------------------|
-------------------------------------------|
-------------------------------------------|


     I  just want to see your blood,    
  S  S  E    E    S  E   E    E.    E   
----12-12---12---12-12--12---17--------|
---------------------------------------|
---------------------------------------|
---------------------------------------|
---------------------------------------|
---------------------------------------|


     I  just want to stand and sta re.         See the blood be gin to  flow    
  S  S  E    E    S  E     E   S   E.  S    S  S   E   E     S  E   E   E.  E   
----10-10---10---10-15----15--15--10-----|----12--12--12----12-12--12--15------|
-----------------------------------------|-------------------------------------|
-----------------------------------------|-------------------------------------|
-----------------------------------------|-------------------------------------|
-----------------------------------------|-------------------------------------|
-----------------------------------------|-------------------------------------|


     as it falls u   pon the floor.        I  ron Mai den can't be  fought,    
  S  S  S  E.    E   S   E   Q     S    S  S  S   E   E   E     E   E.     E   
----10-10-10----10--10--15--10-------|----12-12--12--12--12----12--17---------|
-------------------------------------|----------------------------------------|
-------------------------------------|----------------------------------------|
-------------------------------------|----------------------------------------|
-------------------------------------|----------------------------------------|
-------------------------------------|----------------------------------------|


                                           Riff A            
     I  ron Mai den can't be  sought.                        
  S  S  S   E   E   E     E   E.     E     W                 
----10-10--10--10--10----12-------------|-------------------|
-----------------------------13---------|-------------------|
----------------------------------------|-------------------|
----------------------------------------|-------------------|
----------------------------------------|-------------------|
----------------------------------------|-------------------|


  W                   W                   W                 
-------------------|-------------------|-------------------|
-------------------|-------------------|-------------------|
-------------------|-------------------|-------------------|
-------------------|-------------------|-------------------|
-------------------|-------------------|-------------------|
-------------------|-------------------|-------------------|


  Coro                                                                      
        Oh    Well,      whe re  ver,       whe re  ver    you are,         
  E     T  T  E.   Q     S   E   E.     E   S   E   T   T  S   Q    S Q     
-------15--L-15---------15--15-------|-----14--15--15---L-14--12-----------|
--------------------------------15---|-------------------------------------|
-------------------------------------|-------------------------------------|
-------------------------------------|-------------------------------------|
-------------------------------------|-------------------------------------|
-------------------------------------|-------------------------------------|


     I  ron Mai den's   go nna get you,       no ma  tter    how far.         
  S  S  S   E   E.   S  S  S   E   E.     E   S  E   T    T  S   Q    S Q     
----12-12--12--15------10-10--10-------|-----14-15--15----L-14--12-----------|
----------------------------------12---|-------------------------------------|
---------------------------------------|-------------------------------------|
---------------------------------------|-------------------------------------|
---------------------------------------|-------------------------------------|
---------------------------------------|-------------------------------------|


     See the blood flow   wat ching it  shed       up a  bove my  head.       
  S  S   S   E     E.  S  S   S     E   E.     E   S  S  S    E   Q.     E.   
----12--12--12----15-----10--10----10-------|-----14-14-14---15--12----------|
---------------------------------------12---|--------------------------------|
--------------------------------------------|--------------------------------|
--------------------------------------------|--------------------------------|
--------------------------------------------|--------------------------------|
--------------------------------------------|--------------------------------|


     I  ron Mai den      wants you for    dead.              
  S  S  S   E   E.  E.   E     S   E      Q    H.            
----12-12--12--15-------14----12--10--|--12-----------------|
--------------------------------------|---------------------|
--------------------------------------|---------------------|
--------------------------------------|---------------------|
--------------------------------------|---------------------|
--------------------------------------|---------------------|


  Riff A                                                                        
  W                   W                   W                   W                 
-------------------|-------------------|-------------------|-------------------|
-------------------|-------------------|-------------------|-------------------|
-------------------|-------------------|-------------------|-------------------|
-------------------|-------------------|-------------------|-------------------|
-------------------|-------------------|-------------------|-------------------|
-------------------|-------------------|-------------------|-------------------|


  Verso Riff                                            
              Won't    you    come in  to  my  room,    
  E           T     T  T   T  S    E   E   E   E.   E   
-------------12-----L-12---L-17---15--15--12--12-------|
-------------------------------------------------------|
-------------------------------------------------------|
-------------------------------------------------------|
-------------------------------------------------------|
-------------------------------------------------------|


     I  wa nna show you all  my    wares.   
  S  S  S  E   S    S   E.   T  T  Q     S  
----10-10-10--10---10--12---15--L-12-------|
-------------------------------------------|
-------------------------------------------|
-------------------------------------------|
-------------------------------------------|
-------------------------------------------|


     I  just want to see your blood,    
  S  S  E    E    S  E   E    E.    E   
----12-12---12---12-12--12---17--------|
---------------------------------------|
---------------------------------------|
---------------------------------------|
---------------------------------------|
---------------------------------------|


     I  just want to stand and sta re.         See the blood be gin to  flow    
  S  S  E    E    S  E     E   S   E.  S    S  S   E   E     S  E   E   E.  E   
----10-10---10---10-15----15--15--10-----|----12--12--12----12-12--12--15------|
-----------------------------------------|-------------------------------------|
-----------------------------------------|-------------------------------------|
-----------------------------------------|-------------------------------------|
-----------------------------------------|-------------------------------------|
-----------------------------------------|-------------------------------------|


     as it falls u   pon the floor.        I  ron Mai den can't be  fought,    
  S  S  S  E.    E   S   E   Q     S    S  S  S   E   E   E     E   E.     E   
----10-10-10----10--10--15--10-------|----12-12--12--12--12----12--17---------|
-------------------------------------|----------------------------------------|
-------------------------------------|----------------------------------------|
-------------------------------------|----------------------------------------|
-------------------------------------|----------------------------------------|
-------------------------------------|----------------------------------------|


                                           Coro                                
     I  ron Mai den can't be  sought.            Oh    Well,      whe re  ver, 
  S  S  S   E   E   E     E   E.     E     E     T  T  E.   Q     S   E   E.   
----10-10--10--10--10----12-------------|-------15--L-15---------15--15-------|
-----------------------------13---------|--------------------------------15---|
----------------------------------------|-------------------------------------|
----------------------------------------|-------------------------------------|
----------------------------------------|-------------------------------------|
----------------------------------------|-------------------------------------|


      whe re  ver    you are,              I  ron Mai den's   go nna get you, 
  E   S   E   T   T  S   Q    S Q       S  S  S   E   E.   S  S  S   E   E.   
-----14--15--15---L-14--12-----------|----12-12--12--15------10-10--10-------|
-------------------------------------|----------------------------------12---|
-------------------------------------|---------------------------------------|
-------------------------------------|---------------------------------------|
-------------------------------------|---------------------------------------|
-------------------------------------|---------------------------------------|


      no ma  tter    how far.         
  E   S  E   T    T  S   Q    S Q     
-----14-15--15----L-14--12-----------|
-------------------------------------|
-------------------------------------|
-------------------------------------|
-------------------------------------|
-------------------------------------|


     See the blood flow   wat ching it  shed       up a  bove my  head.       
  S  S   S   E     E.  S  S   S     E   E.     E   S  S  S    E   Q.     E.   
----12--12--12----15-----10--10----10-------|-----14-14-14---15--12----------|
---------------------------------------12---|--------------------------------|
--------------------------------------------|--------------------------------|
--------------------------------------------|--------------------------------|
--------------------------------------------|--------------------------------|
--------------------------------------------|--------------------------------|


                                          Break              
     I  ron Mai den      wants you for    dead.              
  S  S  S   E   E.  E.   E     S   E      Q    H.            
----12-12--12--15-------14----12--10--|--12-----------------|
--------------------------------------|---------------------|
--------------------------------------|---------------------|
--------------------------------------|---------------------|
--------------------------------------|---------------------|
--------------------------------------|---------------------|


  Verso Riff                                            
              Won't    you    come in  to  my  room,    
  E           T     T  T   T  S    E   E   E   E.   E   
-------------12-----L-12---L-17---15--15--12--12-------|
-------------------------------------------------------|
-------------------------------------------------------|
-------------------------------------------------------|
-------------------------------------------------------|
-------------------------------------------------------|


     I  wa nna show you all  my    wares.   
  S  S  S  E   S    S   E.   T  T  Q     S  
----10-10-10--10---10--12---15--L-12-------|
-------------------------------------------|
-------------------------------------------|
-------------------------------------------|
-------------------------------------------|
-------------------------------------------|


     I  just want to see your blood,    
  S  S  E    E    S  E   E    E.    E   
----12-12---12---12-12--12---17--------|
---------------------------------------|
---------------------------------------|
---------------------------------------|
---------------------------------------|
---------------------------------------|


     I  just want to stand and sta re.         See the blood be gin to  flow    
  S  S  E    E    S  E     E   S   E.  S    S  S   E   E     S  E   E   E.  E   
----10-10---10---10-15----15--15--10-----|----12--12--12----12-12--12--15------|
-----------------------------------------|-------------------------------------|
-----------------------------------------|-------------------------------------|
-----------------------------------------|-------------------------------------|
-----------------------------------------|-------------------------------------|
-----------------------------------------|-------------------------------------|


     as it falls u   pon the floor.        I  ron Mai den can't be  fought,    
  S  S  S  E.    E   S   E   Q     S    S  S  S   E   E   E     E   E.     E   
----10-10-10----10--10--15--10-------|----12-12--12--12--12----12--17---------|
-------------------------------------|----------------------------------------|
-------------------------------------|----------------------------------------|
-------------------------------------|----------------------------------------|
-------------------------------------|----------------------------------------|
-------------------------------------|----------------------------------------|


                                           Coro                                
     I  ron Mai den can't be  sought.            Oh    Well,      whe re  ver, 
  S  S  S   E   E   E     E   E.     E     E     T  T  E.   Q     S   E   E.   
----10-10--10--10--10----12-------------|-------15--L-15---------15--15-------|
-----------------------------13---------|--------------------------------15---|
----------------------------------------|-------------------------------------|
----------------------------------------|-------------------------------------|
----------------------------------------|-------------------------------------|
----------------------------------------|-------------------------------------|


      whe re  ver    you are,              I  ron Mai den's   go nna get you, 
  E   S   E   T   T  S   Q    S Q       S  S  S   E   E.   S  S  S   E   E.   
-----14--15--15---L-14--12-----------|----12-12--12--15------10-10--10-------|
-------------------------------------|----------------------------------12---|
-------------------------------------|---------------------------------------|
-------------------------------------|---------------------------------------|
-------------------------------------|---------------------------------------|
-------------------------------------|---------------------------------------|


      no ma  tter    how far.         
  E   S  E   T    T  S   Q    S Q     
-----14-15--15----L-14--12-----------|
-------------------------------------|
-------------------------------------|
-------------------------------------|
-------------------------------------|
-------------------------------------|


     See the blood flow   wat ching it  shed       up a  bove my  head.       
  S  S   S   E     E.  S  S   S     E   E.     E   S  S  S    E   Q.     E.   
----12--12--12----15-----10--10----10-------|-----14-14-14---15--12----------|
---------------------------------------12---|--------------------------------|
--------------------------------------------|--------------------------------|
--------------------------------------------|--------------------------------|
--------------------------------------------|--------------------------------|
--------------------------------------------|--------------------------------|


                                               Outro         
     I  ron Mai den      wants you for    dead.              
  S  S  S   E   E.  E.   E     S   E      Q    H.            
----12-12--12--15-------14----12--10--|--12-----------------|
--------------------------------------|---------------------|
--------------------------------------|---------------------|
--------------------------------------|---------------------|
--------------------------------------|---------------------|
--------------------------------------|---------------------|


  W                   W                 
-------------------|-------------------|
-------------------|-------------------|
-------------------|-------------------|
-------------------|-------------------|
-------------------|-------------------|
-------------------|-------------------|


   Oo   ow!,      Oo  oo  owww!                              
   |---------3--------|   3                                  
   E    E   Q     E   E   H.               W                 
--15S--12--------15--15--15~------------|-------------------|
----------------------------------------|-------------------|
----------------------------------------|-------------------|
----------------------------------------|-------------------|
----------------------------------------|-------------------|
----------------------------------------|-------------------|




- Chorus:
                                  
Coro: Adrian y Steve
                                      
  Coro                                                  
  E     T  T  E.  Q     S  E   E.     W                 
-----------------------------------|-------------------|
-----------------------------------|-------------------|
-------12--L-12--------12-12-------|-------------------|
------------------------------12---|-------------------|
-----------------------------------|-------------------|
-----------------------------------|-------------------|


  S S S E   E.  H           W                   S S S E   E.  H         
-------------------------|-------------------|-------------------------|
-------------------------|-------------------|-------------------------|
----9-9-9--12------------|-------------------|----9-9-9--12------------|
-------------------------|-------------------|-------------------------|
-------------------------|-------------------|-------------------------|
-------------------------|-------------------|-------------------------|


  E   S  S  S  E  Q.     E.     S S S E   E.  H           W                 
-----------------------------|-------------------------|-------------------|
-----------------------------|-------------------------|-------------------|
-----11-11-11-12--9----------|----9-9-9--12------------|-------------------|
-----------------------------|-------------------------|-------------------|
-----------------------------|-------------------------|-------------------|
-----------------------------|-------------------------|-------------------|




Duration Legend
---------------
W - whole
H - half
Q - quarter
E - 8th
S - 16th
T - 32nd
X - 64th
. - note dotted
|-n-|  - n-tuplets


Tablature Legend
----------------
L - tied note
x - dead note
g - grace note
(n) - ghost note
> - accentuded note
NH - natural harmonic
AH - artificial harmonic
TH - tapped harmonic
SH - semi harmonic
PH - pitch harmonic
h - hammer on
p - pull off
b - bend
br - bendRelease
pb - preBend
pbr - preBendRelease
brb - bendReleaseBend
\n/ - tremolo bar dip
\n - tremolo bar dive
-/n - tremolo bar Release up
/n\ - tremolo bar inverted dip
/n - tremolo bar return
-\n - tremolo bar Release down
S - shift slide
s - legato slide
/ -  slide into from below or out of upwards
\ -  slide into from above or out of downwards
~ - vibrato
W - wide vibrato
tr - trill
TP - tremolo picking
T - tapping
S - slap
P - pop
< - fade in
^ - brush up
v - brush down

            
            
Suggest correction
Creating personal tab
Creating personal tab
You can edit any tab online and save it as your Personal.

You can edit, replace or remove any tab part or add personal notes – all changes will be seen only by you.

Personal tabs can be accessed anytime from any device, even offline.
Learn more »
comments
print report bad tab
guest
You may want to rate the tab now too:
select rating
Wanna post a correction for this tab? Suggest correction