Oops, an error
Loading. Please wait.

Ive Got The Fire Tab

version 2
version 2

Whole song

Interactive

871 views 1 this week
no commentswrite comment
1 2 3 4 5
2 more votes to show rating
add to favorites
launch autoscroll
font size
0
reset
how to read this tab
guitar tuner
Autoscroll
slow
fast
+/-
esc
set tempo
stop
Help us to improve Ultimate-Guitar.com Take our survey!
×
Author
Difficulty
novice
Band:  Iron Maiden
Album: Flight of Icarus single
Song:  I've got the Fire(Montrose cover)

Copyright (c)  (EMI) (1983)
Version 1.0 - (08/11/05)



.  - palm mute           /  - slide up to
\  - slide down to       ~  - vibrato
h  - hammer on           b  - Bend
p  - pull off            Suffixes for bend
t  - tap                 f  - full bend    h - half bend
ph - pinched harmonic    q  - quarter bend t - tap bend
*  - see comment         ^  - Hold bend    r release bend
x  - Stuccatto           ~  - vibrato bend
,  - slight palm mute    () - ghost note, sustained note
"  - tremolo note        <> - Trill

Tunning E A D G B E
 

 Intro

  Guitar 1
         ~~~  
E[----------------------------------------------------------|
B[----------------------------------------------------------|
G[-------3---------3---5p3---------------3--5--0----(0)-----|
D[-0-3-5-3--5-3-55---5-----5-3-----------3--5--0----(0)-----|
A[-----------------------------5-4-3\1---1--3---------------|
E[-------------------------------------3-------3----(3)-----|
 [Guitar 2
 [       ~~~  
E[----------------------------------------------------------|
B[----------------------------------------------------------|
G[-------3---------3---5p3---------------3--5--0----(0)-----|
D[-0-3-5----5-3-55---5-----5-3-----------3--5--0----(0)-----|
A[-----------------------------5-4-3\1---1--3---------------|
E[-------------------------------------3-------3----(3)-----| Rpt

 Main Riff

  Guitar 1
         [---------PM---------]
E[--------------------------------------|
B[--------------------------------------|
G[--------------------------------------|
D[--------------------------------------|
A[-------5-5-5-5-5-5-5-5-5-5-5-5-(5)----|
E[-0-1-2/3-3-3-3-3-3-3-3-3-3-3-3-(3)----|
 [Guitar 1
 [       [---------PM---------]
E[--------------------------------------|
B[--------------------------------------|
G[--------------------------------------|
D[--------------------------------------|
A[---3/4/5-5-5-5-5-5-5-5-5-5-5-5-(5)----|
E[-0-1/2/3-3-3-3-3-3-3-3-3-3-3-3-(3)----| Rpt


 Verse

  Guitar 1
        
E[--------|
B[--------|
G[--------|
D[--------|
A[--------|
E[-0-1-2/-|
 [Guitar 1
 [      
E[--------|
B[--------|
G[--------|
D[--------|
A[---3/4/-|
E[-0-1/2/-|


E------------------------------------------------------|
B------------------------------------------------------|
G-----------------3------(3)----------5------(5)-------|
D-5------(5)------3------(3)----------5------(5)-------|
A-5------(5)----0-1------(1)------0-1-3------(3)-------|
E-3------(3)--------------------3----------------------|
(Guitar 2 doubles power chords but 'chugs' on them several times.)

 [---------PM---------]
E--------------------------------|
B--------------------------------|
G--------------------------------|
D--------------------------------|
A-5-5-5-5-5-5-5-5-5-5-5-5-(5)----|
E-3-3-3-3-3-3-3-3-3-3-3-3-(3)----| 

  Guitar 1
        
E[--------|
B[--------|
G[--------|
D[--------|
A[--------|
E[-0-1-2/-|
 [Guitar 1
 [      
E[--------|
B[--------|
G[--------|
D[--------|
A[---3/4/-|
E[-0-1/2/-|

E------------------------------------------------------|
B------------------------------------------------------|
G-----------------3------(3)----------5------(5)-------|
D-5------(5)------3------(3)----------5------(5)-------|
A-5------(5)----0-1------(1)------0-1-3------(3)-------|
E-3------(3)--------------------3----------------------|

 [-------PM-------]
E------------------|
B------------------|
G------------------|
D------------------|
A-5-5-5-5-5-5-5-5--|
E-3-3-3-3-3-3-3-3--| 

  Guitar 1
     ~~~~   ~~~~
E[---------------|
B[---------------|
G[-3-------------|
D[---5---3-5-----|
A[---------------|
E[---------------|
 [Guitar 2
 [   ~~~~   ~~~~
E[---------------|
B[-11------------|
G[---12--10-12---|
D[---------------|
A[---------------|
E[---------------|

E------------------------------------------------------|
B------------------------------------------------------|
G-----------------3------(3)----------5------(5)-------|
D-5------(5)------3------(3)----------5------(5)-------|
A-5------(5)----0-1------(1)------0-1-3------(3)-------|
E-3------(3)--------------------3----------------------|

  Guitar 1
     ~~  ~~  ~~~
E[---------------|
B[---------------|
G[---3---3---3sb-|
D[-5---5---5-3sb-|
A[---------------|
E[---------------|
 [Guitar 2
 [   ~~  ~~  ~~~
E[---------------|
B[---------------|
G[---3---3---3sb-|
D[-5---5---5-----|
A[---------------|
E[---------------|

 Rpt Intro for Chorus

 Backing for  guitar solo is Verse
 Rpt Intor Riff once
 Rpt Main Riff
 Rpt Verse
 Rpt Intro



Though this recording appears as a studio track on the b-side of Flight of Icarus,
this tab was transcribed using a live version so may differ slightly.



END

Suggest correction
Give kudos to tab author, rate the tab!
1 2 3 4 5
comments
print report bad tab
guest
You may want to rate the tab now too:
select rating
Wanna post a correction for this tab? Suggest correction