Oops, an error
Loading. Please wait.

Journeyman Tab

version 1
version 1

Whole song

Interactive

40,317 views 24 this week
4 commentsread comments
1 2 3 4 5
x 11
add to favorites
launch autoscroll
font size
0
reset
how to read this tab
guitar tuner
Autoscroll
slow
fast
+/-
esc
set tempo
stop
Help us to improve Ultimate-Guitar.com Take our survey!
×
IRON MAIDEN
                            JOURNEYMAN
[Intro]
e|--------------------------------------------------|
B|-1-----1----0-----0-----3-----3-----1-----1-------|
G|-----2----2-----2-----2-----2-----2-----2-----2---|
D|---2----2-----2-----2-----2-----2-----2-----2-----|
A|-0----------0-----------0-----------0-------------|
E|--------------------------------------------------|(x2)

THEN...
 RIFF 1 :
 
  guitar 1 :
e|--------------------------------------------------|
B|-1-----1----0-----0-----3-----3-----1-----1-------|
G|-----2----2-----2-----2-----2-----2-----2-----2---|
D|---2----2-----2-----2-----2-----2-----2-----2-----|
A|-0----------0-----------0-----------0-------------|
E|--------------------------------------------------|
 |                                                  |
 |guitar 2 :                                        | 
e|--------------------------------------------------|
B|-1---------0------------3-----------1-------------|
G|-2---------2------------2-----------2-------------|
D|-2---------2------------2-----------2-------------|
A|-0---------0------------0-----------0-------------|
E|--------------------------------------------------|
 |                                                  |
 |                                                  |
 |guitar 3                                          |
e|--------------------------------------------------|
B|--------------------3s5---------------------------|
G|----3s5--4--5s7--5-------7---3s5--4---------------|
D|--------------------------------------------------|
A|--------------------------------------------------|
E|--------------------------------------------------|

 RIFF 2 :
e|-0-----0------------------------------------------|
B|-----1----1-3-----3-----1-----1----0-----0--------|
G|---2----2-------2-----2-----2----2-----2-----2----|
D|-3----------3-3-----3-----0----0-----0-----0------|
A|--------------------------------------------------|
E|------------------------3----------3--------------|
 |                                                  |
 |                                                  |  
e|-0---------0-----------0-----------0--------------|
B|-1---------3-----------1-----------0--------------|
G|-2---------2-----------2-----------2--------------|
D|-3---------3-----------0-----------0--------------|
A|-0---------0--------------------------------------|
E|-----------------------3-----------3--------------|
 |                                                  |
 |                                                  |
 |                                                  
e|--------------------------------------------------|
B|--------------------3s5---------------------------|
G|----3s5--4--5s7--5-------7---3s5--4---------------|
D|--------------------------------------------------|
A|--------------------------------------------------|
E|--------------------------------------------------|

Repeat riff 1 and riff 2 
and then ....

[Intro]

 ( F7+ e A ) few times

[Verse 1]

F7+                             A
From the red sky of the east. To the sunset in the west
F7+                                        A
We have cheated death. And he has cheated us
F7+                             A
But that was just a dream. And this is what it means
F7+                                     A       
We are sleeping and we'll dream for Evermore

C                   D           A
And the fragment remains. Of our memories
C                   D           G
And the shadows we made. With our hands
C               D               C               D
Deeper grey, came to mourn. All the colours of  the dawn
C               D               A
Will this journeyman's day. Be his last

[Chorus]
Dm                  F
I know what I want. And I say what I want
C                       Bb9  C9
And no one can take it away

(F7+  A)

[Verse 2]

F7+                             A
But the memory still remains. All the past years not so strange
F7+                                     A    
Our winter times are. Like a silent shroud

F7+                             A
And the heartbeat of the day. Drives the mist away
F7+                                     A
And the winter's not the only dream around

C                   D        A  
In your life you choose desoltaion
C                       D               G
And the shadow's you build with your hands
C                    D               C            D     
If you turn to the light. That is burning in the night
C              D               A
Then your journeyman's day has begun

[Chorus]

C                   D        A
In your life you choose desoltaion
C                      D                G
And the shadow's you build with your hands
C                     D                 C           D   
If you turn to the light. That is burning in the night
C               D                A
Then your journeyman's day has begun

[Chorus]


        E A D G B e
A       0 0 2 2 2 0
C       0 3 2 0 1 0
G       3 2 0 0 3 3
F7+     0 0 3 2 1 0
F       1 3 3 2 1 1
D       0 0 0 2 3 2
Dm      0 0 0 2 3 1
Bb9     1 1 3 3 1 1
C9      3 3 5 5 3 3



************************************

| s slide

************************************
Suggest correction
comments
print report bad tab
4 comments total. Showing first comments.
0 reply
Jimothy 70 Jan 06, 2004 12:00 AM

You're a dude and the large majority of this is right - yet you may need to take another look at the chords on the chorus... Good Job Man

+1 reply
AndyGray 110 Jan 31, 2004 12:00 AM

good job ive been looking for a tab of this song for ages

0 reply
camaro055 10 Sep 05, 2009 01:07 PM

for the intro, u tabbed the bass part that comes in at 0:08, but u have the right notes and idea. It's more like this for the guitar:
|-------------------------------------------------|e
|-1-----1-----0-----0-----3-----3-----1-----1-----|B
|---2-----2-----2-----2-----2-----2-----2-----2---|G
|-------------------------------------------------|D
|-----0-----0-----0-----0-----0-----0-----0-----0-|A
|-------------------------------------------------|E
im pretty sure. try listening to the song again.

guest
You may want to rate the tab now too:
select rating
Wanna post a correction for this tab? Suggest correction