Oops, an error
Loading. Please wait.

Judgement Of Heaven Tab

version 2
version 2

Whole song

3,645 views 9 this week
no commentswrite comment
1 2 3 4 5
excellent!
x 4
add to favorites
launch autoscroll
font size
0
reset
how to read this tab
guitar tuner
Autoscroll
slow
fast
+/-
esc
set tempo
stop
Help us to improve Ultimate-Guitar.com Take our survey!
×
transcribed: Jose Hernandez

Intro and verse one
Riff 1
e |---------------------------------------------------------|
B |---------------------------------------------------------|
G |---------------------------------------------------------|
D |--2-----2-----2--2-----2-----2--4-----4-----4------------|
A |--2-x-x-2-x-x-2--4-x-x-4-x-x-4--2-x-x-2-x-x-2------------|
E |---------------------------------------------------------|  

e |---------------------------------|    
B |---------------------------------|
G |---------------------------------|
D |--1--1--1-2--2--2--1-------------|x2 End of riff1
A |--2--2--2-2--2--2--2-------------|
E |---------------------------------|
Verse1 Riff1
"A lonely Cry for help..."
e |---------------------------------------------------------|
B |---------------------------------------------------------|
G |---------------------------------------------------------|
D |--2-----2-----2--2-----2-----2--4-----4-----4------------|
A |--2-x-x-2-x-x-2--4-x-x-4-x-x-4--2-x-x-2-x-x-2------------|
E |---------------------------------------------------------|  

e |---------------------------------|
B |---------------------------------|
G |---------------------------------|
D |--1--1--1-2--2--2--1-------------|x4
A |--2--2--2-2--2--2--2-------------|
E |---------------------------------|
Bridge: Riff2
        "But thats the easy way,        Thats the selfish way...
e |------------------------------------------------------------------------|
B |------------------------------------------------------------------------|
G |------------------------------------------------------------------------|
D |------------------------------------------------------------------------|
A |--5--5--5--5--5--5--4--4--4--4--4--4--7--7--7--7--7--7--6--6--6--6--6--6|
E |--5--5--5--5--5--5--5--5--5--5--5--5--7--7--7--7--7--7--7--7--7--7--7--7|
 The hardest part is to get on with your life" 

e |------------------------------------------------------------------------|
B |------------------------------------------------------------------------|
G |------------------------------------------------------------------------|
D |------------------------------------------------------------------------|
A |--5--5--5--5--5--5--4--4--4--4--5--4--2--2--2--2--2--2--2--2--2--2--2--2|
E |--5--5--5--5--5--5--5--5--5--5--5--5--2--2--2--2--2--2--2--2--2--2--2--2|

Then verse2 with distortion
"youre searching in the dark..."           4x
e |------------------------------------------------------------------------|
B |------------------------------------------------------------------------|
G |------------------------------------------------------------------------|
D |--4-----4-----4--4-----4-----4-----4--6-----6-----6-----6-----6-----6---|
A |--4-x-x-4-x-x-4--6-x-x-6-x-x-6-x-x-6--4-x-x-4-x-x-4-x-x-4-x-x-4-x-x-4---|
E |------------------------------------------------------------------------|


Then bridge again(riff2)
"And tell me of my fate, tell me of my place 
tell me if i´ll ever rest in peace!"

Then pre-chorus(riff3) play riff3 twice

  "if you could life your life again, would you change a thing or leave it all the same
e |--------------------------------------------------------------------|
B |--------------------------------------------------------------------|
G |---6------6------6-----6--6---6-------------------------------------|
D |---4-x-x--4--x-x-4-x-x-4--4---4----7-----7-----9-----9-----9---9----|
A |-----------------------------------5-x-x-5-x-x-7-x-x-7-x-x-7---7----|
E |--------------------------------------------------------------------|
   "if you had the chance again would you change a thing at all..."
e |--------------------------------------------------------------|
B |--------------------------------------------------------------|
G |---6-----6-----6-----6-6---6-------------9--9-----------------|
D |---4-x-x-4-x-x-4-x-x-4-4---4-7--7---7----7--7-x-x9--9---------| end of 
A |-----------------------------5--5-x-5-x----------7--7---------| riff3
E |--------------------------------------------------------------|

listen that very carefully. it was hard to find out but i made it and its 
100% correct.
 
Chorus: "All of my life..."

e |--------------------------------------------------------------
B |--------------------------------------------------------------
G |-----------------7-----7-----7-----------------9-----9-----9--
D |--4-----4-----4--7-----7-----7--7-----7-----7--9-----9-----9--x4
A |--4-----4-----4--5-x-x-5-x-x-5--7-----7-----7--7-x-x-7-x-x-7--
E |--2-x-x-2-x-x-2-----------------5-x-x-5-x-x-5-----------------

"waiting for me... waiting for me...          yeah yeah!"
play chords as many as needed
e |--------------------------------------------------------------|
B |--------------------------------------------------------------|
G |--4-4-----4-----4--7--7-----7-----7--9-9------9-----9-9-------|
D |--4-4-----4-----4--7--7-----7-----7--9-9------9-----9-9-------|
A |--2-2-x-x-2-x-x-2--5--5-x-x-5-x-x-5--7-7-x-x--7-x-x-7-7-------|
E |--------------------------------------------------------------|

Riff 4


e |-------------------------------|
B |-------------------------------|
G |-----2--4--2-------------------|
D |--4--2--4--2--4-2--------------|x4
A |--4--0--2--0--4-2--------------|
E |--2-----------2-0--------------|

solo: riff 4 four times 

introlude: listen the song carefully to catch this

e |----------------------------------------------------------7--------
B |---7--9-10-7-9-10-7-9-10-7-9-10-7-9-10-7--9-10-7-9-10-7-9---10-9-7-
G |-------------------------------------------------------------------
D |-------------------------------------------------------------------
A |-------------------------------------------------------------------
E |-------------------------------------------------------------------


e |--------------------------------------------------------------| 
B |-7--9-10-7--9-10-7--9-10-7--9-10-7--9-10-10---5-5-------------|
G |--------------------------------------------------------------|
D |--------------------------------------------------------------|
A |--------------------------------------------------------------|
E |--------------------------------------------------------------|


e |----------------------------------------------------------7--------
B |---7--9-10-7-9-10-7-9-10-7-9-10-7-9-10-7--9-10-7-9-10-7-9---10-9-7-
G |-------------------------------------------------------------------
D |-------------------------------------------------------------------
A |-------------------------------------------------------------------
E |-------------------------------------------------------------------


e |--------------------------------------------------------------|
B |-7--9-10-7--9-10-7--9-10-7--9-10-7--9-10-10---9-9-------------|
G |--------------------------------------------------------------|
D |--------------------------------------------------------------|
A |--------------------------------------------------------------|
E |--------------------------------------------------------------|

Third time
e |-------------------------------------------------
B |-10--12-14-10-12-14-10-12-14-10-12-14-10-12-14---
G |-------------------------------------------------
D |-------------------------------------------------
A |-------------------------------------------------
E |-------------------------------------------------

e |----------------------------10--------------------------------
B |---10--12-14-10-12-14-10-12-----14-12-10----------------------
G |--------------------------------------------------------------
D |--------------------------------------------------------------
A |--------------------------------------------------------------
E |--------------------------------------------------------------

e |--------------------------------------------------------------|
B |---10--12-14-10-12-14-10-12-14-10-12-14-10-12-14-14-12--12----|
G |--------------------------------------------------------------|
D |--------------------------------------------------------------|
A |--------------------------------------------------------------|
E |--------------------------------------------------------------|

Melody:

e |---------------------9-10-7---7-------------------------------|
B |--7--9-10--7--9--10-------------10--7--9-10----10-9-9-10-10---|
G |---------------------------------------------9----------------|x4
D |--------------------------------------------------------------|
A |--------------------------------------------------------------|
E |--------------------------------------------------------------|

Riff5
e |------9-7-9----9-7-9----9-7-9-10-9-7-9--9-7-9-10-9-7----------
B |-----------------------------------------------------10-------
G |--------------------------------------------------------9-----
D |--------------------------------------------------------------
A |--------------------------------------------------------------
E |--------------------------------------------------------------

e |---------7-----------------------------------------------------|
B |---10-10---10-9------------------------------------------------|
G |----------------9----------------------------------------------|
D |---------------------------------------------------------------|x2
A |---------------------------------------------------------------|
E |---------------------------------------------------------------|

Then to chorus 



Chorus: "All of my life..."

e |--------------------------------------------------------------
B |--------------------------------------------------------------
G |-----------------7-----7-----7-----------------9-----9-----9--
D |--4-----4-----4--7-----7-----7--7-----7-----7--9-----9-----9--x4
A |--4-----4-----4--5-x-x-5-x-x-5--7-----7-----7--7-x-x-7-x-x-7--
E |--2-x-x-2-x-x-2-----------------5-x-x-5-x-x-5-----------------

"waiting for me... waiting for me...          yeah yeah!"
play chords as many as needed
e |--------------------------------------------------------------|
B |--------------------------------------------------------------|
G |--4-4-----4-----4--7--7-----7-----7--9-9------9-----9-9-------|
D |--4-4-----4-----4--7--7-----7-----7--9-9------9-----9-9-------|
A |--2-2-x-x-2-x-x-2--5--5-x-x-5-x-x-5--7-7-x-x--7-x-x-7-7-------|
E |--------------------------------------------------------------|

Riff 4
"yeah... Yeah yeah!"

e |-------------------------------|
B |-------------------------------|
G |-----2--4--2-------------------|
D |--4--2--4--2--4-2--------------|x4
A |--4--0--2--0--4-2--------------|
E |--2-----------2-0--------------|

End
 "yeah!"
e |----|
B |----|
G |----|
D |-4--|
A |-4--|
E |-2--|

great song. enjoy.
if you have something to say mail me at jose.hernandez@kolumbus.fi
Suggest correction
comments
print report bad tab
guest
You may want to rate the tab now too:
select rating
Wanna post a correction for this tab? Suggest correction