Oops, an error
Loading. Please wait.

Killers Tab

version 3
version 3

Whole song

Interactive

2,312 views 1 this week
3 commentsread comments
1 2 3 4 5
please rate
add to favorites
launch autoscroll
font size
0
reset
how to read this tab
guitar tuner
Autoscroll
slow
fast
+/-
esc
set tempo
stop
Help us to improve Ultimate-Guitar.com Take our survey!
×
Author
                                Killers
                       As Recorded by Iron Maiden



       E5             C5              F5               G5             D5
   x 7 9 9 x x    x 3 5 5 x x    x 8 10 10 x x   x 10 12 12 x x   x 5 7 7 x x

       B5             B5             G5
   x 2 4 4 x x    7 9 9 x x x    3 5 5 x x x



Gtr I    (E A D G B E) - 'Dave Murray  - dist electric'
Gtr II   (E A D G B E) - 'Adrian Smith - clean electric'
Gtr III  (E A D G B E) - 'Adrian Smith - dist electric'
Bass     (E A D G)     - 'Steve Harris - electric bass, finger'
     

Intro:
°°°°°°
  Q=167
 4/4
 Bass
    let ring ~~~~~~~~~~~~~~~~~~~~~~~~~~~~~~~~~~~~~~~~~~~~~~~~~~~~~~~~~~~~~|
G||------------------|-----------------|-----------------|------------------||
D||------------------|-----------------|-----------------|------------------||
A||--7---7---7---7---|-7---7---7---7---|-5---5---3---2---|-7---7---7---7----||
E||----0---0---0---0-|---0---0---0---0-|---0---0---0---0-|---0---0---0---0--||

   Gtr I
E|----------------------------------|--------------------------------|
B|----------------------------------|--------------------------------|
G|----------------------------------|--------------------------------|
D|--0h2p0h2p0h2p0h2p0h2p0h2p0h2p0h2p|0h2p0h2p0h2p0h2p0h2p0h2p0h2p0h2-|
A|----------------------------------|--------------------------------|
E|----------------------------------|--------------------------------|
 |
 |
 | Gtr II                  let ring
E|-------------------------[12]-----|--------------------------------|
B|-----------------------------[12]-|--------------------------------|
G|----------------------------------|--------------------------------|
D|----------------------------------|--------------------------------|
A|----------------------------------|--------------------------------|
E|----------------------------------|--------------------------------|


E|---------------------------------|---------------------------------|
B|---------------------------------|---------------------------------|
G|---------------------------------|---------------------------------|
D|-0h2p0h2p0h2p0h2p0h2p0h2p0h2p0h2p|0h2p0h2p0h2p0h2p0h2p0h2p0h2p0h2--|
A|---------------------------------|---------------------------------|
E|---------------------------------|---------------------------------|
 |
 |
 |                         let ring
E|---------------------------------|---------------------------------|
B|-------------------------[5]-----|---------------------------------|
G|---------------------------------|---------------------------------|
D|---------------------------------|---------------------------------|
A|---------------------------------|---------------------------------|
E|---------------------------------|---------------------------------|

Figure A:   2 Times
°°°°°°°°°   °°°°°°°
   Gtr I
E||------------------|*----Fill I-----*|-----------------|*----Fill II----*|
B||o-----------------|*---------------*|-----------------|*---------------*|
G||--9----(9)s-------|*---Play 1st----*|-----------------|*---Play 2nd----*|
D||--9----(9)s-------|*-----Time------*|-----------------|*-----Time------*|
A||o-7----(7)s-------|*-----Only------*|-----------------|*-----Only------*|
E||------------------|*---------------*|-----------------|*---------------*|
 |
 |
 | Gtr II let ring
E||----0-----0-----0-|-----0-----0-----|-0-----0-----0---|---0-----0-----0-|
B||o-----8-----8-----|-8-----8-----8---|---8-----8-----8-|-----8-----8-----|
G||--9-----9-----9---|---9-----9-----9-|-----9-----9-----|-9-----9-----9---|
D||------------------|-----------------|-----------------|-----------------|
A||o-----------------|-----------------|-----------------|-----------------|
E||------------------|-----------------|-----------------|-----------------|

                                                                       slide
E|------------------|-----------------|-----------------|-----------------|
B|------------------|-----------------|-----------------|---------------8s|
G|--9----(9)s-------|--9----(9)s------|-----------------|---------------7s|
D|--9----(9)s-------|--9----(9)s------|-----------------|---------------5s|
A|--7----(7)s-------|--7----(7)s------|-----------------|-----------------|
E|------------------|-----------------|-----------------|-----------------|
 |
 |
 |  let ring
E|------0-----0-----|-0----0-----0----|---0-----0-----0-|----0-----0------|
B|--8-----8-----8---|---8-----8-----8-|-----8-----8-----|8-----8-----8----|
G|----9-----9-----9-|-----9-----9-----|-9-----9-----9---|--9-----9-----9--|
D|------------------|-----------------|-----------------|-----------------|
A|------------------|-----------------|-----------------|-----------------|
E|------------------|-----------------|-----------------|-----------------|

 to                                                                            slide
E|------------------|-----------------|-------------------------|-----------------|
B|10---------10s12--|-13-----------13s|8----------------------8s|10-------------8s|
G|-9----------9s11--|-12-----------12s|7----------------------7s|-9-------------7s|
D|-7----------7s-9--|-10-----------10s|5----------------------5s|-7-------------5s|
A|------------------|-----------------|-------------------------|-----------------|
E|------------------|-----------------|-------------------------|-----------------|
 |
 |
 |  let ring
E|------0-----0-----|-----0-----0-----|-------------------------|-----0-----0-----|
B|--10----10----10--|-13----13----13--|-13-12-10----13-12-10----|-10----10----10--|
G|----9-----9-----9-|---9-----9-----9-|----------12----------12-|---9-----9-----9-|
D|------------------|-----------------|-------------------------|-----------------|
A|------------------|-----------------|-------------------------|-----------------|
E|------------------|-----------------|-------------------------|-----------------|

 to                                                                  
E|------------------|-----------------|-------------------------|-----------------||
B|10---------10s12--|-13-----------13s|8----------------------8s|10--------------o||
G|-9----------9s11--|-12-----------12s|7----------------------7s|-9---------------||
D|-7----------7s-9--|-10-----------10s|5----------------------5s|-7---------------||
A|------------------|-----------------|-------------------------|----------------o||
E|------------------|-----------------|-------------------------|-----------------||
 |
 |
 |  let ring
E|------0-----0-----|-----0-----0-----|-------------------------|-----0-----0-----||
B|--10----10----10--|-13----13----13--|-13-12-10----13-12-10----|-10----10----10-o||
G|----9-----9-----9-|---9-----9-----9-|----------12----------12-|---9-----9-----9-||
D|------------------|-----------------|-------------------------|-----------------||
A|------------------|-----------------|-------------------------|----------------o||
E|------------------|-----------------|-------------------------|-----------------||

Fill I:               Fill II:
°°°°°°°               °°°°°°°°
  Gtr I                 Gtr I
E|-------------||     E|---------------------------------||
B|-------------||     B|---------------------------------||
G|--9s---------||     G|---------------------------------||
D|--9s---------||     D|---------------------------------||
A|--7s---------||     A|-5h7p5h7p5h7p5h7p5h7p5h7p5h7p5h7-||
E|-------------||     E|---------------------------------||

Figure B:   2 Times      
°°°°°°°°°   °°°°°°°
  Gtr I  Harmonical Slide
E||-----------------------------------------|--------------------------------------|
B||o----------------------------------------|--------------------------------------|
G||-----------------------------------------|--------------------------------------|
D||-----------------------------------------|--------------------------------------|
A||o[2]-[2][2][2]-[2][2][3]-[3][3][4]-[4][4]|[5]-[5][5][7]-[7][7][12]-[12][12]-----|
E||-----------------------------------------|----------------------------------13s-|
 |
 |Gtr III
 |     P.M.-------------------------------|      P.M.----------------------|
E||-----------------------------------------|--------------------------------------|
B||o----------------------------------------|--------------------------------------|
G||-----------------------------------------|--------------------------------------|
D||--9--------------------------------------|-9--------------------------------9s--|
A||o-7---7--7--7---7--7--7---7--7--7---7--7-|-7---7--7--7---7--7--7----7---7---7s--|
E||-----------------------------------------|--------------------------------------|

E|------------------------|-------------------------||
B|------------------------|------------------------o||
G|------------------------|-------------------------||
D|----5--4-----5--4-----5-|-4-----5--4--5--4--5--7--||
A|----------5--------5----|----5-------------------o||
E|------------------------|-------------------------||
 |
 |
 |
E|-------------------------|-------------------------||
B|-------------------------|------------------------o||
G|-----4--2-----4--2-----4-|-2-----4--2--4--2--4--5--||
D|--4--------4--------4----|----4--------------------||
A|-------------------------|------------------------o||
E|-------------------------|-------------------------||

Verse:   2 Times
°°°°°°   °°°°°°°
   Gtr I
 |     P.M.-------------------------------|      P.M.----------------------|
E||-----------------------------------------|--------------------------------------|
B||o----------------------------------------|--------------------------------------|
G||-----------------------------------------|--------------------------------------|
D||--9--------------------------------------|-9--------------------------------9s--|
A||o-7---7--7--7---7--7--7---7--7--7---7--7-|-7---7--7--7---7--7--7----7---7---7s--|
E||-----------------------------------------|--------------------------------------|
 |
 |
 | Gtr III
 |     P.M.-------------------------------|      P.M.----------------------|
E||-----------------------------------------|--------------------------------------|
B||o----------------------------------------|--------------------------------------|
G||-----------------------------------------|--------------------------------------|
D||--9--------------------------------------|-9--------------------------------9s--|
A||o-7---7--7--7---7--7--7---7--7--7---7--7-|-7---7--7--7---7--7--7----7---7---7s--|
E||-----------------------------------------|--------------------------------------|

E|-------------------------|-------------------------||
B|-------------------------|------------------------o||
G|-------------------------|-------------------------||
D|-----5--4-----5--4-----5-|-4-----5--4--5--4--5--7--||
A|--5--------5--------5----|----5-------------------o||
E|-------------------------|-------------------------||
 |
 |
 |
E|-------------------------|-------------------------||
B|-------------------------|------------------------o||
G|-----4--2-----4--2-----4-|-2-----4--2--4--2--4--5--||
D|--4--------4--------4----|----4--------------------||
A|-------------------------|------------------------o||
E|-------------------------|-------------------------||

Chorus:
°°°°°°°
  Gtr I
       P.M.------------|             P.M.-------------|          P.M.-------------|
E|----------------------------|-----------------------------|----------------------------|
B|----------------------------|-----------------------------|----------------------------|
G|----------------------------|-----------------------------|----------------------------|
D|--5--------------------5--9-|-(9)--------------------9--7-|-5--------------------5--12-|
A|--3--3-3-3--3-3-3--3-3-3--7-|-(7)--7-7-7--7-7-7--7-7-7--5-|-3--3-3-3--3-3-3--3-3-3--10-|
E|----------------------------|-----------------------------|----------------------------|
 |
 |
 |Gtr III let ring
E|----------------------------|-----------------------------|----------------------------|
B|----------------------------|-----------------------------|----------------------------|
G|----------------------------|-----------------------------|----------------------------|
D|--5--------------------5--9-|-(9)--------------------9--7-|-5--------------------5--12-|
A|--3--------------------3--7-|-(7)--------------------7--5-|-3--------------------3--10-|
E|----------------------------|-----------------------------|----------------------------|

                    P.M.-----------|           P.M.-------------|
E|----------------------------------------|---------------------------|
B|----------------------------------------|---------------------------|
G|--------12-12-12------------------12----|---------------------------|
D|--(12)--12-12-12------------------12--7-|-5--------------------5--9-|
A|--(10)--10-10-10--10-10-10--10-10-10--5-|-3--3-3-3--3-3-3--3-3-3--7-|
E|----------------------------------------|---------------------------|
 |
 |
 |let ring
E|----------------------------------------|---------------------------|
B|----------------------------------------|---------------------------|
G|--------12-12-12------------------12----|---------------------------|
D|--(12)--12-12-12------------------12--7-|-5--------------------5--9-|
A|--(10)--10-10-10------------------10--5-|-3--------------------3--7-|
E|----------------------------------------|---------------------------|

         P.M.-------------|          P.M.-------------|
E|------------------------------|---------------------------|
B|------------------------------|---------------------------|
G|------------------------------|---------------------------|
D|--(9)--------------------9--7-|-5--------------------5--4-|
A|--(7)--7-7-7--7-7-7--7-7-7--5-|-3--3-3-3--3-3-3--3-3-3--2-|
E|------------------------------|---------------------------|
 |
 |
 |let ring
E|------------------------------|---------------------------|
B|------------------------------|---------------------------|
G|------------------------------|---------------------------|
D|--(9)--------------------9--7-|-5--------------------5--4-|
A|--(7)--------------------7--5-|-3--------------------3--2-|
E|------------------------------|---------------------------|


E|-------------------|-----------------|-----------------|-----------------|
B|-------------------|-----------------|-----------------|-----------------|
G|-------4-4-4-2-----|-----4-4-4-2-----|-----5-5-5-3-----|-----7-7-7-5-----|
D|--(4)----------4-4-|-(4)---------4-5-|-(5)---------5-7-|-(7)---------7---|
A|--(2)------------2-|-(2)-----------3-|-(3)-----------5-|-(5)-------------|
E|-------------------|-----------------|-----------------|-----------------|
 |
 |
 |
E|-------------------|-----------------|-----------------|-----------------|
B|-------------------|-----------------|-----------------|-----------------|
G|-------4-4-4-2-----|-----4-4-4-2-----|-----5-5-5-3-----|-----7-7-7-5-----|
D|--(4)----------4-4-|-(4)---------4-5-|-(5)---------5-7-|-(7)---------7---|
A|--(2)------------2-|-(2)-----------3-|-(3)-----------5-|-(5)-------------|
E|-------------------|-----------------|-----------------|-----------------|

Figure B
°°°°°°°°
Verse
°°°°°
Chorus
°°°°°°

Interlude:
°°°°°°°°°°
   Gtr I  
              wide vib.
E||----------------------------|-----------------------------------|
B||o-12b14=r13--12~~~~~--12-12-|-12--10-10-10----------------------|
G||----------------------------|--------------12-12-12--11-12p11---|
D||----------------------------|--------------------------------12-|
A||o---------------------------|-----------------------------------|
E||----------------------------|-----------------------------------|
 |
 | Gtr III
 |            wide vib.
E||----------------------------|-----------------------------------|
B||o-10b12=r11--10~~~~~--8--8--|-8---6--6--6-----------------------|
G||----------------------------|--------------9--9--9---7--7p9-----|
D||----------------------------|--------------------------------9--|
A||o---------------------------|-----------------------------------|
E||----------------------------|-----------------------------------|

              wide vib.
E|----------------------------|-----------------------------------||
B|--12b14=r13--12~~~~~--12-12-|-12--10-10-10---------------------o||
G|----------------------------|--------------12-12-12--11~~~~~~~--||
D|----------------------------|-----------------------------------||
A|----------------------------|----------------------------------o||
E|----------------------------|-----------------------------------||
 |
 | 
 |            wide vib.
E|----------------------------|-----------------------------------||
B|--10b12=r11--10~~~~~--8--8--|-8---6--6--6----------------------o||
G|----------------------------|--------------9--9--9---7~~~~~~~---||
D|----------------------------|-----------------------------------||
A|----------------------------|----------------------------------o||
E|----------------------------|-----------------------------------||


   Gtr I , III
E||------------|-----------------|------------|------------------|
B||------------|-----------------|------------|------------------|
G||------------|-----------------|------------|------------------|
D||----------9-|-9-7-7-7-7s9-9s--|----------9-|-9-7.-7.-7-9------|
A||--5.-7-7.-7-|-7-5-5-5-5s7-7s--|--5.-7-7.-7-|-7-5.-5.-5-7--5-5-|
E||--3.-5-5.---|-----------------|--3.-5-5.---|--------------3-3-|


E|---------------|----------------------|--------------||
B|---------------|----------------------|--------------||
G|---------------|----------------------|--------------||
D|-----------9-9-|-9--7-7-7--7-7-7s9-9s-|--------------||
A|--5.--7-7.-7-7-|-7--5-5-5--5-5-5s7-7s-|--5.--7-7-7.--||
E|--3.--5-5.-----|----------------------|--3.--5-5-5.--||

Bridge:
°°°°°°°

  Gtr I , III
    I________________________________________________  Can see_
        P.M.------------------------------------------|
E|-------------------------------|---------------------------|
B|-------------------------------|---------------------------|
G|-------------------------------|---------------------------|
D|--10---------------------------|10-------------------10-12-|
A|---8--8-8-8--8-8-8--8-8-8--8-8-|-8--8-8-8--8-8-8--8-8-8-10-|
E|-------------------------------|---------------------------|

    _____________                                                     What a knives__
         P.M.--------------------------------------------------------------|
E|-------------------------------------------|-----------------------------------|
B|-------------------------------------------|-----------------------------------|
G|-------------------------------------------|-----------------------------------|
D|--(12)-------------------------------------|12----------------------------12-5-|
A|--(10)-10-10-10--10-10-10--10-10-10--10-10-|10--10-10-10--10-10-10--10-10-10-3-|
E|-------------------------------------------|-----------------------------------|

    ____________________________                Meant to be_____
           P.M.-------------------------------|             P.M.--------------------|
E|---------------------------|------------------------|------------------------------|
B|---------------------------|------------------------|------------------------------|
G|---------------------------|------------------------|------------------------------|
D|--(5)-4--------------------|-5----------------4-5-7-|-(7)--------------------------|
A|--(3)-2--2-2-3--2-2-3--2-2-|-3--2-2-3--2-2-3--2-3-5-|-(5)-5-5-5--5-5-5--5-5-5--5-5-|
E|---------------------------|------------------------|------------------------------|

                 You'll__________________________________________            Never Know_
   P.M.---------|                    P.M.-----------------------------------|
E|---------------------------|--------------------------------|-------------------------|
B|---------------------------|--------------------------------|-------------------------|
G|---------------------------|--------------------------------|-------------------------|
D|-7-------------7--5--7-10--|-(10)---------------------------|10------------10-9-10-12-|
A|-5--5-5-5--5-5-5--3--5--8--|--(8)--8-8-8--8-8-8--8-8-8--8-8-|-8--8-8-8--8-8-8-7--8-10-|
E|---------------------------|--------------------------------|-------------------------|

    ______________________                                              How I came__
        P.M.--------------------------------------------------------------|
E|------------------------------------------|-----------------------------------|
B|------------------------------------------|-----------------------------------|
G|------------------------------------------|-----------------------------------|
D|-(12)-------------------------------------|12----------------------------12-5-|
A|-(10)-10-10-10--10-10-10--10-10-10--10-10-|10--10-10-10--10-10-10--10-10-10-3-|
E|------------------------------------------|-----------------------------------|

   Gtr I
    _______________________________                 to for    see    see      see____
        P.M.--------------------|    P.M.-----------------|
E|-------------------------------|--------------------------|-10---.-10-------10---
B|-------------------------------|--------------------------|-13b15.-13b15r13-13b15==-| 
G|-------------------------------|--------------------------|-------------------------|
D|-(5)---------------------------|-5-------------5----------|-------------------------|
A|-(3)--2-2-3--2-2-3--2-2-3--2-2-|-3--3-3-3--3-3-3-3-3-3-3--|-------------------------|
E|-------------------------------|--------------------------|-------------------------|
 |
 |  Gtr III
 |      P.M.--------------------|    P.M.-----------------|
E|-------------------------------|--------------------------|-------------------------|
B|-------------------------------|--------------------------|-------------------------|
G|-------------------------------|--------------------------|-------------------------|
D|-(5)---------------------------|-5-------------5----------|-7.-----7--(7)---7-------|
A|-(3)--2-2-3--2-2-3--2-2-3--2-2-|-3--3-3-3--3-3-3-3-3-3-3--|-5.-----5--(5)---5-------|
E|-------------------------------|--------------------------|-------------------------|


       wide vib.
E|--(10)--------||
B|--(15)~~~~~~~-||
G|--------------||
D|--------------||
A|--------------||
E|--------------||
 |
 |
 |
E|--------------||
B|--------------||
G|--------------||
D|--(7)---------||
A|--(5)---------||
E|--------------||

Dave Murray's Solo:
°°°°°°°°°°°°°°°°°°° 
  Gtr I                                                    
E|--------------------------------------------------------|
B|--------------------------------------------------------|
G|--(14)b16-16-16-16-16-16-16-16-16-16r14-14-12--14b16r14-|
D|--------------------------------------------------------|
A|--------------------------------------------------------|
E|--------------------------------------------------------|

           [  3  ]       [  3  ]
E|-------------12--------12h15p12---12-|
B|-----------12-------------------15---|
G|-(14)b16r14----15b17r15--------------|
D|-------------------------------------|
A|-------------------------------------|
E|-------------------------------------|


E|----------12-----------------------------------|---------------------|
B|-15b17r15---15p12-15p12--12--------------------|---------------------|
G|-----------------------14--14b16r14p12---12-14-|-(14)~~~~(14)s----14-|
D|--------------------------------------14-------|---------------14----|
A|-----------------------------------------------|---------------------|
E|-----------------------------------------------|---------------------|



E|----------------------------------------|--------------14h15p14h15p14h15p14-17p15-
B|-17------17------17--17--14h17p14-------|--------14-15----------------------------
G|-------14------14-----------------10-14-|--14-16----------------------------------
D|-----14------14-------------------------|-----------------------------------------
A|----------------------------------------|-----------------------------------------
E|----------------------------------------|-----------------------------------------

  
   [  3  ]                                          
E-14h15p14-|-------14---------------------0-0-0--|
B----------|-17-15----17p15p14-------------------|
G----------|-------------------16--(16)s---------|
D----------|-------------------------------------|
A----------|-------------------------------------|
E----------|-------------------------------------|

   Play 4 Times
E|-12-0-0-0-14-0-0-0-15-0-0-0-17-15-14-0-0-0-|
B|o-----------------------------------------o|
G|-------------------------------------------|
D|-------------------------------------------|
A|o-----------------------------------------o|
E|-------------------------------------------|


E|-12-0-0-0-14-0-0-0-15-0-17-15p14h15p14-|-17-14h17p14h17p14h17p14h17p14h17p14-
B|---------------------------------------|-------------------------------------
G|---------------------------------------|-------------------------------------
D|---------------------------------------|-------------------------------------
A|---------------------------------------|-------------------------------------
E|---------------------------------------|-------------------------------------

                                 wide vib.
E-14-17b19r17-17b19r17-17b19r17-(17)~~~~~~--||
B-------------------------------------------||
G-------------------------------------------||
D-------------------------------------------||
A-------------------------------------------||
E-------------------------------------------||

Adrian Smith's Solo:
°°°°°°°°°°°°°°°°°°°°

E|----------------------------------------|-----------------------
B|----------------------------------------|-----------------------
G|--14b16=r14-(14)~~~~~-12----12-14b16r14-|(14)~~~p12-14b16r14~~~-
D|--14b16=r14-(14)~~~~~----14-------------|-----------------------
A|----------------------------------------|-----------------------
E|----------------------------------------|-----------------------

E----------|-12-----------------12----------------12-------|
B----------|----15p12--------------15p12-------------15p12-|
G-14b16r14-|----------14b16r14-----------14b16r14----------|
D----------|-----------------------------------------------|
A----------|-----------------------------------------------|
E----------|-----------------------------------------------|

E|----------12-15~~~~~~-|-------------------------------------------
B|----------------------|----------12-12-12-12----------14-14-14-14-
G|-14b16r14-------------|-14b16r14-------------16b18r16-------------
D|----------------------|-------------------------------------------
A|----------------------|-------------------------------------------
E|----------------------|-------------------------------------------

E----------------|--------------------------------------|
B----------15-15-|-15-15-----------17-17-17-17-17---17--|
G-17b19r17-------|--------17b19-19----------------------|
D----------------|--------------------------------------|
A----------------|--------------------------------------|
E----------------|--------------------------------------|

E|-19b21r19--19-----|-----------------------------------------------|
B|---------------17-|-------------12--------------------------------|
G|------------------|---14b16r14----11-14---------------------------|
D|------------------|---------------------14.--14b1r14~~~~p12----12-|
A|------------------|-----------------------------------------14----|
E|------------------|-----------------------------------------------|


E|-----------------------|--------------------|---------------------------||
B|-----------------------|--------------------|---------------------------||
G|-----------------------|--------------------|---------------------------||
D|-14b16r14--12----(12)s-|-------------7-9-9p7|h9-9--5--7b9r7-7b9r7-7b9r7-||
A|-----------------------|------7-9-10--------|---------------------------||
E|-----------------------|-8-10---------------|---------------------------||

Figure C:
°°°°°°°°°
   Gtr I
       P.M.-------------------------------|      P.M.----------------------|
E|-----------------------------------------|--------------------------------------|
B|-----------------------------------------|--------------------------------------|
G|-----------------------------------------|--------------------------------------|
D|--9--------------------------------------|-9--------------------------------9s--|
A|--7---7--7--7---7--7--7---7--7--7---7--7-|-7---7--7--7---7--7--7----7---7---7s--|
E|-----------------------------------------|--------------------------------------|
 |
 |
 | Gtr III
 |  
E|-----------------------------------------|--------------------------------------|
B|-----------------------------------------|--------------------------------------|
G|-----------------------------------------|--------------------------------------|
D|--(7)~~~~~~~~~~~~~~~~~~~~~~~~~~~~~~~~~~--|--(7)~~~~~~~~~~~~~~~~~~~~~~~~~~~~~~---|
A|-----------------------------------------|--------------------------------------|
E|-----------------------------------------|--------------------------------------|

E|-------------------------|-------------------------||
B|-------------------------|-------------------------||
G|-------------------------|-------------------------||
D|-----5--4-----5--4-----5-|-4-----5--4--5--4--5--7--||
A|--5--------5--------5----|----5--------------------||
E|-------------------------|-------------------------||
 |
 |
 |
E|-------------------------|-------------------------||
B|-------------------------|-------------------------||
G|-----4--2-----4--2-----4-|-2-----4--2--4--2--4--5--||
D|--4--------4--------4----|----4--------------------||
A|-------------------------|-------------------------||
E|-------------------------|-------------------------||

Verse:   3 Times
°°°°°°   °°°°°°°
Chorus
°°°°°°
Figure B
°°°°°°°°
Verse
°°°°°
Chorus
°°°°°°
Outro:
°°°°°°
   Gtr I
 |     P.M.-------------------------------|      P.M.----------------------|
E||-----------------------------------------|--------------------------------------|
B||-----------------------------------------|--------------------------------------|
G||-----------------------------------------|--------------------------------------|
D||--9--------------------------------------|-9--------------------------------9s--|
A||--7---7--7--7---7--7--7---7--7--7---7--7-|-7---7--7--7---7--7--7----7---7---7s--|
E||-----------------------------------------|--------------------------------------|
 |
 |
 | Gtr III
 |       P.M.-------------------------------|     P.M.----------------------|
E||-----------------------------------------|--------------------------------------|
B||-----------------------------------------|--------------------------------------|
G||-----------------------------------------|--------------------------------------|
D||--9--------------------------------------|-9--------------------------------9s--|
A||--7---7--7--7---7--7--7---7--7--7---7--7-|-7---7--7--7---7--7--7----7---7---7s--|
E||-----------------------------------------|--------------------------------------|


  
E|-------------------------|-------------------------|-----------------||
B|-------------------------|-------------------------|-----------------||
G|-------------------------|-------------------------|-----------------||
D|-----5--4-----5--4-----5-|-4-----5.----9--7--------|-----------9--9s-||
A|--5--------5--------5----|----5--------------10--9-|-7s--------7--7s-||
E|-------------------------|-------------------------|-----------------||
 |
 |
 |
E|-------------------------|-------------10----------|-----------------||
B|-----12-10----12-10----12|-10----12.------13-12-10-|-----------------||
G|-----------11-------11---|----11-------------------|-12s-------------||
D|-------------------------|-------------------------|-----------9--9s-||
A|-------------------------|-------------------------|-----------7--7s-||
E|-------------------------|-------------------------|-----------------||

Lyrics:
°°°°°°°

You walk through the subway,
His eyes burn a hole in your back,
A footstep behind you, he lunges prepared for attack.
Scream for mercy, he laughs as he's watching you bleed,
Killer behind you, his blood lust defies all his needs.

My innocent victims are slaughtered with wrath and despise,
The mocking religion of hatred that burns in the night.
I have no one, I'm bound to destroy all this greed,
A voice inside me compelling to satisfy me.

I can see what a knife's meant to be,
And you'll never know how I came to forsee, see, see.

My faith in believing is stronger than lifelines and ties,
With the glimmer of metal my moment is ready to strike.

Death call arises, a scream breaks the still of the night,
Another tomorrow, remember to walk in the light!
I have found you, and now there is no place to run,
Excitement shakes me, oh God help me what have I done? !
Oooh yeah, I've done it!
Yeeeeaaaaaaaahhhh!

You walk through the subway,
My eyes burn a hole in your back,
A footstep behind you, he lunges prepared for attack.
Scream for mercy, he laughs as he's watching you bleed,
Killer behind you, my blood lust defies all my needs.
Oooh look out, I'm coming for you!
Ahahahaha!


Tablature Legend
----------------
 h   - hammer-on
 p   - pull-off
 b   - bend
 pb  - pre-bend
 r   - bend release (if no number after the r, then release immediately)
 /\  - slide into or out of (from/to "nowhere")
 s   - legato slide
 S   - shift slide
  - natural harmonic
[n]  - artificial harmonic
n(n) - tapped harmonic
 ~   - vibrato
 tr  - trill
 T   - tap
 TP  - trem. picking
 PM  - palm muting
\n/  - tremolo bar dip; n = amount to dip
 \n  - tremolo bar down
 n/  - tremolo bar up
/n\  - tremolo bar inverted dip
 =   - hold bend; also acts as connecting device for hammers/pulls
 <>  - volume swell (louder/softer)
 x   - on rhythm slash represents muted slash
 o   - on rhythm slash represents single note slash

Misc Legend
-----------
 |  - bar
||  - double bar
||o - repeat start
o|| - repeat end
 :  - bar (freetime)
 $  - Segno
 &  - Coda


It's hard to tab the solo 100%. Feel free to send me any corrections.
EDIT:
I fixed a few mistakes
Suggest correction
Give kudos to tab author, rate the tab!
1 2 3 4 5
comments
print report bad tab
3 comments total.
0 reply
Inf1n1tY. 111 wrote on August 17 2005, 12:00 am

ignore the P.M. on Figure C Gtr III

0 reply
Inf1n1tY. 111 wrote on August 17 2005, 12:00 am

switch Figure B w/ Verse after the first chorus. Sry 4 mistake

0 reply
tickler444 50 wrote on December 27 2008, 08:50 am

How come this had a 1-star rating? I gave 5 stars to bring it closer to what it deserves (4 stars). It's not perfect, but you should be able play the song with what is given here and by listening to the album.

guest
You may want to rate the tab now too:
select rating
Wanna post a correction for this tab? Suggest correction