Oops, an error
Loading. Please wait.

Legacy Tab

version 1
version 1

Intro

Whole song

Interactive

6,601 views 6 this week
6 commentsread comments
1 2 3 4 5
accurate
x 5
add to favorites
launch autoscroll
font size
0
reset
how to read this tab
guitar tuner
Tab Pro tools
  • play this tab
  • loop segment
  • change instrument
  • show fretboard
  • metronome
×
Best way to learn
"Legacy"
Autoscroll
slow
fast
+/-
esc
set tempo
stop
Difficulty
intermediate
Hello everyone!

This is only the intro version,
Haven’t got time to make the whole song

Hope you'll enjoy it :)

(Btw this is my first attempt at making a tab,
So don't get mad if did a mistake)




Riff 1

|------10-------10-------8-----8-------6-----6-----------|
|----------------------------7-------------5-------------|
|------------12------------------------------------------|
|---------12---------------7-------------7---------------|
|--------------------------------------------------------|
|--------------------------------------------------------|

|-------5-----5-------3-----3-------1-----1--------------|
|---------------------------------------0----------------|
|-----------7-----------2-5-----------3------------------|
|---------7----------------------------------------------|
|--------------------------------------------------------|
|--------------------------------------------------------|

|-------3-----3------------------------------------------|
|---------------------5-----5------5-----5---------------|
|---------2-5-------------5------------5-----------------|
|-----------------------7------------7-------------------|
|--------------------------------------------------------|
|--------------------------------------------------------|

|--------------------------------------------------------|
|-------6-----6-------5-----5----------------------------|
|-----------5-------------5--------5-----5---------------|
|---------7-------------7------------5-5-----------------|
|--------------------------------------------------------|
|--------------------------------------------------------|

|--------------------------------------------------------|
|-------5-----5-------6-----6------5-----5---------------|
|-----------5-------------5------------5------5-----5----|
|---------7-------------7------------7----------5-5------|
|--------------------------------------------------------|
|--------------------------------------------------------|


Bruce starts singing

riff 2: repeat this 6 times

|------10-------10-------8-----8-------6-----6-----------|
|----------------------------7-------------5-------------|
|------------12------------------------------------------|
|---------12---------------7-------------7---------------|
|--------------------------------------------------------|
|--------------------------------------------------------|

|-------5-----5-------3-----3-------1-----1--------------|
|---------------------------------------0----------------|
|-----------7-----------2-5-----------3------------------|
|---------7----------------------------------------------|
|--------------------------------------------------------|
|--------------------------------------------------------|

|-------3-----3------------------------------------------|
|---------------------5-----5----------------------------|
|---------2-5-------------5------------------------------|
|-----------------------7--------------------------------|
|--------------------------------------------------------|
|--------------------------------------------------------|


Riff 3


|--------------------------------------------------------|
|-------5-----5-------6-----6------5-----5---------------|
|-----------5-------------5------------5------5-----5----|
|---------7-------------7------------7----------5-5------|
|--------------------------------------------------------|
|--------------------------------------------------------|
                            Only time will        tell...
|--------------------------------------------------------|
|-------5-----5-------6-----6------5-----5--------3------|
|-----------5-------------5------------5----------2------|
|---------7-------------7------------7------------0------|
|-------------------------------------------------0------|
|--------------------------------------------------------|



To get the timing right you will have to listen to the song.
For questions and corrections email me at 

peda_50@hotmail.com


peace..
comments
print report bad tab
6 comments total. Showing first comments.
0 reply
Nosuchthings wrote on October 3 2006, 09:14 am

Sounds good but i imagened the beginning of the tab looking something like this...

E|-10-----10--8-----8-|
B|------8---------7---|
G|----7---------------|
D|--------------7-----|
A|--------------------|
E|--------------------|

...Holding your index finger across the first four strings on the 7th fret. That is basically the same thing, but there is a part were they play all strings at once. I thing it lookes like this:

|-10---8----10---8----10---8----6---5--5--|
|-8----7----8----7----8----7----5---5--5--|
|-7----7----7----7----7----7----5---7--7--|
|-7----7----7----7----7----7----7---7--7--|
|-----------------------------------------|
|-----------------------------------------|

0 reply
Eccer wrote on October 3 2006, 11:48 am

Actually I know, just figured it out a couple of days ago. Thanks anyway

Now, about that other part. Wouldn?t this be more correct? Sounds more correct, but I?m bit unsure with the last chord at the end.


|-10---10----10---10----10---10---10---10----|
|--8----6-----8----6-----8----6----6----x----|
|--7----7-----7----7-----7----7----7----9----|
|--0----0-----0----0-----0----0----0----7----|
|---------------------------------------0----|
|--------------------------------------------|

0 reply
Nosuchthings wrote on October 5 2006, 12:37 pm

Yeah...I think you are right. Not sure eather about the last chord either but I don't think it's the one you wrote. I think the notes are too high.

I want to post or [tab]
guest
You may want to rate the tab now too:
select rating
Please do not post tabs as comments. Select "correction" instead!