Oops, an error
Loading. Please wait.

Lightning Strikes Twice Bass Tab

version 1
version 1

Whole song

Interactive

1,054 views 3 this week
1 commentread comment
1 2 3 4 5
excellent!
x 4
add to favorites
launch autoscroll
font size
0
reset
guitar tuner
Tab Pro tools
  • play this tab
  • loop segment
  • change instrument
  • show fretboard
  • metronome
Autoscroll
slow
fast
+/-
esc
set tempo
stop
Contributor
Difficulty
intermediate
RIFF 1 (INTRO)
G|-11-11---7-7-----4-4---6-6-----|
D|9-9-9---5-5-5--2-2-2--4-4-4----|
A|-------------------------------| x 10
E|-------------------------------|

RIFF 2 (INTRO)
G|-11-11-11-11-11--7-7-7-7-7--4-4-4-4-4--6-6-6-6-6--|
D|-9--9--9--9--9---5-5-5-5-5--2-2-2-2-2--4-4-4-4-4--|
A|--------------------------------------------------|  x 4
E|--------------------------------------------------|

RIFF 1 (INTRO)
G|-11-11---7-7-----4-4---6-6-----|
D|9-9-9---5-5-5--2-2-2--4-4-4----|
A|-------------------------------| x 4
E|-------------------------------|

RIFF 2 (INTRO)
G|-11-11-11-11-11--7-7-7-7-7--4-4-4-4-4--6-6-6-6-6--|
D|-9--9--9--9--9---5-5-5-5-5--2-2-2-2-2--4-4-4-4-4--|
A|--------------------------------------------------|  x 4
E|--------------------------------------------------|

RIFF 3 (VERSE) Part 1.
G|-----------------------------------------------|
D|-----------------------------------------------|
A|2-2-0-2--2--2-2-0-2--2--2-2-0-2--2-------------| x 2
E|-----------------------------------3-3-3-0-0-0-|

<>
G|------------------------------------|
D|------------------------------------|
A|2-2-0-2--2--2-2-0-2--2--------------| x 1
E|------------------------3-3-3-0-0-0-|

<>
G|-----------------------------------------------|
D|-----------------------------------------------|
A|2-2-0-2--2--2-2-0-2--2--2-2-0-2--2-------------| x 1
E|-----------------------------------3-3-3-0-0-0-|

<>
G|------------------------|
D|2-2-0-2--2--------------|
A|------------3-3-3-0-0-0-| x 1
E|------------------------|

<>
G|-----------------------|
D|-----------------------|
A|2-2-0-2--2--2-2-0-2--2-| x 1
E|-----------------------|

    >>Only God will know<<
G|--------------------------------------------------|
D|--------------------------------------------------|
A|------------------------2-2-0-2--2--2-2-0-2--2----| x 1
E|-3-3-3--3-3--0-0-0--0-0---------------------------|

>>You're sitting alone you watch<<
G|-----------------------------------------------------|
D|-----------------------------------------------------|
A|-2-2-0-2--2--2-2-0-2----------------2-2-0-2--2-------| x 1
E|----------------------3-3-3-0-0-0--------------------|

>>And the swaying rustling leaves<<
G|-----------------------------------------------|
D|-----------------------------------------------|
A|2-2-0-2--2--2-2-0-2--2-------------2-2-0-2--2--| x 1
E|-----------------------3-3-3-0-0-0-------------|

>>As you wait for rain to fall<<
G|-----------------------------------|
D|2-2-0-2--2-------------------------|
A|------------3-3-3-0-0-0--2-2-0-2--2| x 1
E|-----------------------------------|

>>Only God knows<<
G|--------------------------------------------------|
D|--------------------------------------------------|
A|------------------------2-2-0-2--2--2-2-0-2--2----| x 1
E|-3-3-3--3-3--0-0-0--0-0---------------------------|


 >>The whole sky glooooooooooooooooooooooows<<
G|----------------------------------------------|
D|----------------------------------------------|
A|-10-10-10-10-10--7-7-7-7-7--9--9--9--9--9--9--| x 1
E|----------------------------------------------|

RIFF 4 CHORUS x 10 "MAYBE LIGHTNING STRIKES TWICE!"
G|-------------------------11-11-------------------------9-9------|
D|-9-9-9-9-9-9-9-9-9-9-9-9-9--9--5-5-5-5-5-5-7-7-7-7-7-7-7 7------|
A|----------------------------------------------------------------|
E|----------------------------------------------------------------|

under guitar solo-
G|-----------------------------------------------|
D|-----------------------------------------------|
A|2-2-0-2--2--2-2-0-2--2--2-2-0-2--2-------------| x 4
E|-----------------------------------3-3-3-0-0-0-|

continues-
G|----------------------------------------------------------------|
D|----------------------------------------------------------------|
A|----------------------------------------------------------------|x 1
E|-3-3-3-0-3-3--3-3-3-0-3-3--3-3-3-0-0-0--3-3-3-0-3-3-------------|

continues-
G|-----------------------------------------------------------------|
D|-----------------------------------------------------------------|
A|-----------------------------------------------------------------|x 1
E|-3-3-3-0-3-3--3-3-3-0-3-3--3-3-3-0-0-0--3-3-3-0-3-3--3-3-3-0-3-3-|

interlude/fill
G|---------------------------------|
D|---------------------------------|
A|-7-7-7-7-7--2--2-2-2--7-7-7------|x 4
E|----------------------------3-3--|

>>Only God knows<<
G|--------------------------------------------------|
D|--------------------------------------------------|
A|------------------------2-2-0-2--2--2-2-0-2--2----| x 1
E|-3-3-3--3-3--0-0-0--0-0---------------------------|


 >>The whole sky glooooooooooooooooooooooows<<
G|----------------------------------------------|
D|----------------------------------------------|
A|-10-10-10-10-10--7-7-7-7-7--9--9--9--9--9--9--| x 1
E|----------------------------------------------|

RIFF 4 CHORUS x 10 "MAYBE LIGHTNING STRIKES TWICE!"
G|-------------------------11-11-------------------------9-9------|
D|-9-9-9-9-9-9-9-9-9-9-9-9-9--9--5-5-5-5-5-5-7-7-7-7-7-7-7 7------|
A|----------------------------------------------------------------|
E|----------------------------------------------------------------|

outro-

G|-----------------------------------------------|
D|-----------------------------------------------|
A|2-2-0-2--2--2-2-0-2--2--2-2-0-2--2--0-2-2-0-2--| x 2
E|-----------------------------------------------|


thats it pretty easy -enjoy!!! :D

this song rocks!
"MMAAAAAYBE LIGHTNINGGGG STRIKES TWICE!"

up the irons.
comments
print report bad tab
1 comment total.
0 reply
akarith wrote on March 17 2014, 10:03 am

**** yes thank you for posting!

I want to post or [tab]
guest
You may want to rate the tab now too:
select rating
Please do not post tabs as comments. Select "correction" instead!