Oops, an error
Loading. Please wait.

No More Lies tab

version 3
version 3
1,737 views 1 this week
no commentswrite comment
1 2 3 4 5
x 4
add to favorites
×
Save as Personal and add changes to this tab that will be seen only by you. Learn more ›
×
You can save this tab as Personal to edit and correct it or add notes. All changes will be seen only by you. Learn more »
launch autoscroll
font size
0
reset
how to read this tab
guitar tuner
backing track
0:00
0:00
edit
Autoscroll
slow
fast
+/-
esc
set tempo
stop
Iron Maiden - No More Lies

TUNING : E

INtRO 1 - repeat 2x - clean

Gtr.1
|----------------------------------------------------------------------------|
|----------------------------------------------------------------------------|
|---9-7-9--7-9-7-9--9--7-9-7-9--9--7-9-10-12-10-9-7-9-7----------------------|
|-7-----------------------------------------------------10--10--9-10-9-10--10|
|----------------------------------------------------------------------------|
|----------------------------------------------------------------------------|

|---------------------------|
|---------------------------|
|-------------------------7-|
|-9-10-9-7--7--5-7-5-7-5----|
|---------------------------|
|---------------------------|

Gtr.2
|----12-10-12--10-12-10-12--12--10-12-10-12--12--10-12-13-15-13-12-10-12-10---|
|-10--------------------------------------------------------------------------|
|-----------------------------------------------------------------------------|
|-----------------------------------------------------------------------------|
|-----------------------------------------------------------------------------|
|-----------------------------------------------------------------------------|

|-------------------------------------------------------10-|
|-13--13--12-13-12-13--13--12-13-12-10--10--8-10-8-10-8----|
|----------------------------------------------------------|
|----------------------------------------------------------|
|----------------------------------------------------------|
|----------------------------------------------------------|

Gtr.3
|-----------------------------------------------------------------|
|-----------------------------------------------------------------|
|-----------------------------------------------------------------|
|---9---9---9---9-9---9---9-9---9---9---9---9---5-5---5---5-5---5-|
|-7---7---7---7-----7---7-----7---7---7---7---3-----3---3-----3---|
|-----------------------------------------------------------------|

|-------------------|
|-------------------|
|-------------------|
|---2-2---2---2---7-|
|-0-----0---0---5---|
|-------------------|


INTRO 2 - repeat 4x - clean

Gtr.1
|------------------------------------|
|------------------------------------|
|----9-9-9-9-7-9----9-9-9-9-10-9-7-9-|
|-7---------------7------------------|
|------------------------------------|
|------------------------------------|

4th time play

|-------------------------------------|
|-------------------------------------|
|----9-9-9-9-7-9----9-9-9-9-10-9-10-9-|
|-7---------------7-------------------|
|-------------------------------------|
|-------------------------------------|

Gtr.2
|----------------------------------------------------------------------|
|----------------------------------------------------------------------|
|----------------------------------------------------------------------|
|----14----14----14----14----14----14----14----14---10---10---10---10--|
|-12----12----12----12----12----12----12----12----8----8----8----8-----|
|----------------------------------------------------------------------|

|--------------------------------------------|
|--------------------------------------------|
|--------------------------------------------|
|---5---5---5---5----12-----12-----12-----12-|
|-3---3---3---3---10-----10-----10-----10----|
|--------------------------------------------|

|----------------------------------------------------------------------|
|----------------------------------------------------------------------|
|----------------------------------------------------------------------|
|----14----14----14----14----14----14----14----14---7----7----7----7---|
|-12----12----12----12----12----12----12----12----5----5----5----5-----|
|----------------------------------------------------------------------|

|--------------------------------------------|
|--------------------------------------------|
|--------------------------------------------|
|---5---5---5---5----12-----12-----12-----12-|
|-3---3---3---3---10-----10-----10-----10----|
|--------------------------------------------|

INTRO 3 - repeat 4x - clean

Gtr.1
|----------------------------------------------------|
|-10--12-13--10--12-13--10--12-13--15-13-12-13-12----|
|-------------------------------------------------12-|
|----------------------------------------------------|
|----------------------------------------------------|
|----------------------------------------------------|

Gtr.2
|----------------------------------------------------------------------|
|----------------------------------------------------------------------|
|----------------------------------------------------------------------|
|----14----14----14----14----14----14----14----14---10---10---10---10--|
|-12----12----12----12----12----12----12----12----8----8----8----8-----|
|----------------------------------------------------------------------|

|----------------------------|
|----------------------------|
|----------------------------|
|----12-----12-----12-----12-|
|-10-----10-----10-----10----|
|----------------------------|

|----------------------------------------------------------------------|
|----------------------------------------------------------------------|
|----------------------------------------------------------------------|
|----14----14----14----14----14----14----14----14---7----7----7----7---|
|-12----12----12----12----12----12----12----12----5----5----5----5-----|
|----------------------------------------------------------------------|

|----------------------------|
|----------------------------|
|----------------------------|
|----12-----12-----12-----12-|
|-10-----10-----10-----10----|
|----------------------------|

INTRO END

Verse 1 - repeat 4x - clean

Gtr.1
|-------------------------------------------------|
|-------------------------------------------------|
|-------------------------------------------------|
|----14----14----14----14----14----14----14----14-|
|-12----12----12----12----12----12----12----12----|
|-------------------------------------------------|

|-------------------------------------------------|
|-------------------------------------------------|
|-------------------------------------------------|
|---10----10----10----10----10----10----10----10--|
|-8-----8-----8-----8-----8-----8-----8-----8-----|
|-------------------------------------------------|

|-------------------------------------------------|
|-------------------------------------------------|
|-------------------------------------------------|
|---7----7----7----7----7----7----7----7----------|
|-5----5----5----5----5----5----5----5------------|
|-------------------------------------------------|

|-------------------------------------------------|
|-------------------------------------------------|
|-------------------------------------------------|
|----12----12----12----12----12----12----12-------|
|-10----10----10----10----10----10----10----10----|
|-------------------------------------------------|

Gtr2
|------------|
|------------|
|----------9-|
|---9-10-9---|
|-7----------|
|------------|

Verse 2 - repeat 2x - clean

|-------------------------------------------------|
|-------------------------------------------------|
|-------------------------------------------------|
|----14-----14-----14-----14---7----7----7----7---|
|-12-----12-----12-----12----5----5----5----5-----|
|-------------------------------------------------|

|------------------------------------|
|------------------------------------|
|------------------------------------|
|---5---5---5---5--------------------|
|-3---3---3---3-----5----5----5----5-|
|-----------------3----3----3----3---|

|-------------------------------------------------|
|-------------------------------------------------|
|-------------------------------------------------|
|----14-----14-----14-----14---7----7----7----7---|
|-12-----12-----12-----12----5----5----5----5-----|
|-------------------------------------------------|

|-----------------------------------------|
|-----------------------------------------|
|-----------------------------------------|
|---5---5---5---5----12----12----12----12-|
|-3---3---3---3---10----10----10----10----|
|-----------------------------------------|

CHORUS - repeat 2x - distrotion

|--------------------------------------------|
|--------------------------------------------|
|--------------------------------------------|
|-7-7-7-7-7--7-7-7-7-7--3-3-3-3-3--3-3-3-3-3-|
|-7-7-7-7-7--7-7-7-7-7--3-3-3-3-3--3-3-3-3-3-|
|-5-5-5-5-5--5-5-5-5-5--1-1-1-1-1--1-1-1-1-1-|

|--------------------------------------------|
|--------------------------------------------|
|----------------------7-7-7-7-7--7-7-7-7-7--|
|-5-5-5-5-5--5-5-5-5-5-7-7-7-7-7--7-7-7-7-7--|
|-5-5-5-5-5--5-5-5-5-5-5-5-5-5-5--5-5-5-5-5--|
|-3-3-3-3-3--3-3-3-3-3-----------------------|

VERSE 1 - repeat i_don't_know_how_many_times - distortion

|----------------------------------------------------------------|
|----------------------------------------------------------------|
|----------------------------------------------------------------|
|------7-------7-------7-------7-------3-------3-------3-------3-|
|------7-------7-------7-------7-------3-------3-------3-------3-|
|-5-5--5--5-5--5--5-5--5--5-5--5--1-1--1--1-1--1--1-1--1--1-1--1-|

|----------------------------------------------------------------|
|----------------------------------------------------------------|
|------7-------7-------7-------7---------------------------------|
|------7-------7-------7-------7-------5-------5-------5-------5-|
|-5-5--5--5-5--5--5-5--5--5-5--5-------5-------5-------5-------5-|
|---------------------------------3-3--3--3-3--3--3-3--3--3-3--3-|

VERSE 2

|---------------------------------------|
|---------------------------------------|
|---------------------------------------|
|-14--14--14--7--7--7--5--5--5----------|
|-12--12--12--5--5--5--3--3--3--5--5--5-|
|-------------------------------3--3--3-|

|------------------------------------------|
|------------------------------------------|
|------------------------------------------|
|-14--14--14--7--7--7--5--5--5--12--12--12-|
|-12--12--12--5--5--5--3--3--3--10--10--10-|
|------------------------------------------|

CHORUS
CHORUS w/ VERSE 1 RIFF
VERSE 1 w/ ALL INTRO RIFFS
SOLO - not tabbed...too lazy w/ VERSE 1 RIFF
VERSE 2
CHORUS
CHORUS w/ VERSE 1 RIFF
some variation od VERSE 1 RIFF w/ all intro riffs
INTRO 2
END


BY Gandalph915..any comments etc. send to euronymous915@centrum.cz
Suggest correction
Creating personal tab
Creating personal tab
You can edit any tab online and save it as your Personal.

You can edit, replace or remove any tab part or add personal notes – all changes will be seen only by you.

Personal tabs can be accessed anytime from any device, even offline.
Learn more »
comments
print report bad tab
guest
Wanna post a correction for this tab? Suggest correction