Oops, an error
Loading. Please wait.

Phantom Of The Opera Tab

version 1
version 1
74,282 views 60 this week
6 commentsread comments
1 2 3 4 5
x 26
add to favorites
launch autoscroll
font size
0
reset
how to read this tab
guitar tuner
Autoscroll
slow
fast
+/-
esc
set tempo
stop
Help us to improve Ultimate-Guitar.com Take our survey!
×
[Intro]
                                              (3x)
e|-------------------------------------------------------|
B|-------------------------------------------------------|
G|------4--4h5p4-----7--4-----5--4-----------------------|
D|--5h7-----------5--------5--------5--4--5--7-----------|
A|----------------------------------------------2~-------|
E|-------------------------------------------------------|

[RIFF C-during verses]
e|--------------------------------------------------|
B|--------------------------------------------------|
G|------4--4h5p4-----7--4-----5--4------------------|
D|--5h7-----------5--------5--------5--4--5--7------|
A|--------------------------------------------------|
E|--------------------------------------------------|

(Gtr 2)
e|-----------------------------------------------------------------|
B|--------------------------------------------------12-12-12-------|
G|--4-4-4--5-5-5--7-7-7--9-9-9--12-12-12--14-14-14-----------------|
D|-----------------------------------------------------------------|
A|-----------------------------------------------------------------|
E|-----------------------------------------------------------------|

e|--------------15p-12------15p-12------15p-12-----etc-------------|
B|--15-15-15------------12----------12----------12-----------------|
G|-----------------------------------------------------------------|
D|-----------------------------------------------------------------|
A|-----------------------------------------------------------------|
E|-----------------------------------------------------------------|

[Gtr 1]
e|-----------------------------------------------------------------|
B|----------------7-7-7--8-8-8--12-12-12--13-13-13--15-15-15-------|
G|--7-7-7--9-9-9---------------------------------------------------|
D|-----------------------------------------------------------------|
A|-----------------------------------------------------------------|
E|-----------------------------------------------------------------|

e|--------------19p-15------19p-15------19p-15-----etc-------------|
B|--17-17-17------------17----------17----------17-----------------|
G|-----------------------------------------------------------------|
D|-----------------------------------------------------------------|
A|-----------------------------------------------------------------|
E|-----------------------------------------------------------------|

(Gtr 1)
(Dave)
    Em                                           G      D
e|-----------------------------------------------------------------|
B|-----------------------------------------------------------------|
G|-----------------------------------------------7-----------------|
D|-----------------------------------------------5------7----------|
A|--7-7-7--10-7-7--7-7-7--10-7-7--7-7-7--10-7-7--5------5----------|
E|-----------------------------------------------------------------|

(Gtr 2) 
e|-----------------------------------------------------------------|
B|-----------------------------------------------------------------|
G|---------------------------------------------7-------------------|
D|--2-2-2--5-2-2--2-2-2--5-2-2--2-2-2--5-2-2---5-----7-------------|
A|---------------------------------------------5-----5-------------|
E|-----------------------------------------------------------------|

(Then both guitars)                                      (3x)
    F#m                         Gm
e|-----------------------------------------------------------------|
B|-----------------------------------------------------------------|
G|-----------------------------------------------------------------|
D|--4-4-4--7-4-4--4-4-4--7-4-4--5-5-5--8-5-5--5-5-5--8-5-5---------|
A|-----------------------------------------------------------------|
E|-----------------------------------------------------------------|

[RIFF A]
(I'll just show the strong beats, listen for strumming.)
    Em      B(m)    C       D
e|---------------------------------------------|
B|---------------------------------------------|
G|--9--9----4--4----5--5----7--7---------------|
D|--9--9----4--4----5--5----7--7---------------|
A|--7--7----2--2----3--3----5--5---------------|
E|---------------------------------------------|

[RIFF B]
(Gtr 1)
    Em                                          D
e|-----------------------------------------------------------------|
B|-----------------------------------------------------------------|
G|-----------------------------------------------------------------|
D|----------------------------------------------7--7--7------------|
A|--7-7-7--10-7-7--7-7-7--10-7-7--7-7-7-10-7-7--5--5--5------------|
E|-----------------------------------------------------------------|

 (Gtr 2)
e|-----------------------------------------------------------------|
B|-----------------------------------------------------------------|
G|--------------------------------------------7--7--7--------------|
D|--2-2-2--5-2-2--2-2-2--5-2-2--2-2-2--5-2-2--5--5--5--------------|
A|-----------------------------------------------------------------|
E|-----------------------------------------------------------------|

(The verses are made up of RIFF A, RIFF B and RIFF C.)

RIFF C - RIFF B - RIFF C - RIFF B
RIFF A - RIFF B - RIFF A - RIFF B

(4/4 Section)
(Keep Your Distance...)
(Listen for the muting. At the end of the section just
play the first part before going into the solo.)

    E(m)                                        D    (2x)
e|-------------------------------------------------------|
B|-------------------------------------------------------|
G|--------9-----------9-----------9--------9----7--------|
D|-----9-----9-----9-----9-----9-----------9----7--------|
A|--7-----------7-----------7--------7-----7----5--------|
E|-------------------------------------------------------|

    D                       C
e|-------------------------------------------------------|
B|-------------------------------------------------------|
G|--------7-----------7-----------5-----------5----------|
D|-----7-----7-----7-----7-----5-----5-----5-----5-------|
A|--5-----------5-----------3-----------3----------------|
E|-------------------------------------------------------|

    E(m)                                       D
e|-------------------------------------------------------|
B|-------------------------------------------------------|
G|--------9-----------9-----------9-------9----7---------|
D|-----9-----9-----9-----9-----9-----9----9----7---------|
A|--7-----------7-----------7-------------7----5---------|
E|-------------------------------------------------------|

[RHYTHM FOR SLOW SOLO]
(Basically just the following chords picked adlib)
    C                  Em                 F         G
e|-----------0------------------0----------------------------------|
B|--------------1------------------0---------1---------3-----------|
G|--------0--------0------------------0---------2---------4--------|
D|-----2---------------------2-------------------------------------|
A|--3---------------------2----------------------------------------|
E|---------------------0------------------1---------3--------------|

    Em
e|-----0-----0-------------|
B|----0---------0----------|
G|---0-------------0-------|
D|--2-----2----------------|
A|-------------------------|
E|-------------------------|
       ^ Finish on Em chord here.

[HARMONY]
(Gtr 1)
(Dave)(He really does pick every note!)

(BAR 1)
e|--19--15------19--15------19--15------19--15-----------|
B|----------17----------17----------17----------17-------|
G|-------------------------------------------------------|
D|-------------------------------------------------------|
A|-------------------------------------------------------|
E|-------------------------------------------------------|

(BAR 2)
e|--17--14------17--14------17--14------17--14-----------|
B|----------15----------15----------15----------15-------|
G|-------------------------------------------------------|
D|-------------------------------------------------------|
A|-------------------------------------------------------|
E|-------------------------------------------------------|

(BAR 3)
e|--15--12------15--12------15--12------15--12-----------|
B|----------13----------13----------13----------13-------|
G|-------------------------------------------------------|
D|-------------------------------------------------------|
A|-------------------------------------------------------|
E|-------------------------------------------------------|

(BAR 4(i))
e|--17--14------17--14------17--14------17--14-----------|
B|----------15----------15----------15----------15-------|
G|-------------------------------------------------------|
D|-------------------------------------------------------|
A|-------------------------------------------------------|
E|-------------------------------------------------------|

(When drums enter (fully) BAR 4 changes to)
(BAR 4(ii))
e|--12--12--12--12--12--12--14--14--14--14--14--14-------|
B|--13--13--13--13--13--13--15--15--15--15--15--15-------|
G|-------------------------------------------------------|
D|-------------------------------------------------------|
A|-------------------------------------------------------|
E|-------------------------------------------------------|

(BAR 4(iii) Fill 1)
e|-------------------------------------------------------|
B|--13--12------13--12------15--13--12--13--12-----------|
G|----------14----------14----------------------14-------|
D|-------------------------------------------------------|
A|-------------------------------------------------------|
E|-------------------------------------------------------|

(BAR 4(iv) Fill 2)
e|-------------------------------------------------------|
B|--13--12------13--12------13--12------15--13--12-------|
G|----------14----------14----------14-------------------|
D|-------------------------------------------------------|
A|-------------------------------------------------------|
E|-------------------------------------------------------|

(Gtr 2(Adrian))
(BAR 1)
e|--19p-15------19p-15------19p-15------19p-15-----------|
B|----------17----------17----------17----------17-------|
G|-------------------------------------------------------|
D|-------------------------------------------------------|
A|-------------------------------------------------------|
E|-------------------------------------------------------|

(BAR 2)
e|--17p-14------17p-14------17p-14------17p-14-----------|
B|----------15----------15----------15----------15-------|
G|-------------------------------------------------------|
D|-------------------------------------------------------|
A|-------------------------------------------------------|
E|-------------------------------------------------------|

(BAR 3)
e|--15p-12------15p-12------15p-12------15p-12-----------|
B|----------13----------13----------13----------13-------|
G|-------------------------------------------------------|
D|-------------------------------------------------------|
A|-------------------------------------------------------|
E|-------------------------------------------------------|

(BAR 4)
e|--17p-14------17p-14------17p-14------17p-14-----------|
B|----------15----------15----------15----------15-------|
G|-------------------------------------------------------|
D|-------------------------------------------------------|
A|-------------------------------------------------------|
E|-------------------------------------------------------|

(When drums enter (fully) Adrian changes to)

(BAR 1)
e|--15p-12------15p-12------15p-12------15p-12-----------|
B|----------12----------12----------12----------12-------|
G|-------------------------------------------------------|
D|-------------------------------------------------------|
A|-------------------------------------------------------|
E|-------------------------------------------------------|

(BAR 2)
e|--14p-10------14p-10------14p-10------14p-10-----------|
B|----------10----------10----------10----------10-------|
G|-------------------------------------------------------|
D|-------------------------------------------------------|
A|-------------------------------------------------------|
E|-------------------------------------------------------|

(BAR 3)
e|--12p-8-----12p-8-----12p-8-----12p-8------------------|
B|---------8---------8---------8---------8---------------|
G|-------------------------------------------------------|
D|-------------------------------------------------------|
A|-------------------------------------------------------|
E|-------------------------------------------------------|

(BAR 4)
e|--8--8--8--8--8--8--10--10--10--10--10--10-------------|
B|--8--8--8--8--8--8--10--10--10--10--10--10-------------|
G|-------------------------------------------------------|
D|-------------------------------------------------------|
A|-------------------------------------------------------|
E|-------------------------------------------------------|

(BAR 4(iii))
(Fill 1)
e|----------------------7--------------------------------|
B|--10--8--7--10--8--7-----10--8--10--8--7---------------|
G|-------------------------------------------------------|
D|-------------------------------------------------------|
A|-------------------------------------------------------|
E|-------------------------------------------------------|

(BAR 4(iv))
(Fill 2)
e|--------------------------------7----------------------|
B|--10--8--7--10--8--7--10--8--7-----10--8---------------|
G|-------------------------------------------------------|
D|-------------------------------------------------------|
A|-------------------------------------------------------|
E|-------------------------------------------------------|

[RIFF D]
(Listen for strumming and muting. You can vary the chord
positions here adlib till you get the right sound.)
    E(m)      G        A(m)    C    B(m)
e|-------------------------------------------------------|
B|-------------------------------------------------------|
G|--4---------7--------9---------------------------------|
D|--2---------5--------7-------5----4--------------------|
A|--2---------5--------7-------3----2--------------------|
E|--0----------------------------------------------------|

[RIFF E]
(More or less the same riff as riff D except it's changed
from triplets to straight timing.)
    E(m)                                 G
e|-------------------------------------------------------|
B|-------------------------------------------------------|
G|---------------------------------------7---------------|
D|--9---9-9--9---9-9--9---9-9--9p7-7-7---5---------------|
A|--7---7-7--7---7-7--7---7-7--7---7-7---5---------------|
E|--0----------------------------------------------------|

    A(m)            C     D
e|-----------------------------------|
B|-----------------------------------|
G|--9--------------------------------|
D|--7---------------5-----7----------|
A|--7---------------3-----5----------|
E|-----------------------------------|

[HARMONY]
(Gtr 2)
(Adrian)
e|--------------------------------------------------------7--------|
B|--------------------------8------8p-7--8~---7h-8p-7--8-----8~----|
G|--9p-7--9~----7h-9p-7--9-----9~----------------------------------|
D|-----------------------------------------------------------------|
A|-----------------------------------------------------------------|
E|-----------------------------------------------------------------|

e|-----------------------------------------------------------------|
B|--8p-7--8~---7h-8p-7--8--7------------------8--7-----10--8--7----|
G|----------------------------9~---9p-7-9--7--------9------------9-|
D|-----------------------------------------------------------------|
A|-----------------------------------------------------------------|
E|-----------------------------------------------------------------|

(Gtr 1)
(Dave)
e|-----------------------------------------------------------------|
B|------------------------10------------------------------15-------|
G|-12p11-12~-11h12p11--12-----12~--16p14-16~--14h16p14-16----16~---|
D|-----------------------------------------------------------------|
A|-----------------------------------------------------------------|
E|-----------------------------------------------------------------|

e|-------------------------------------------------------------------|
B|----------------------------------------------12-10----13-12-10----|
G|--16p14-16~-14h16p14-16-14--12~--12p11-12~-11-------12----------12-|
D|-------------------------------------------------------------------|
A|-------------------------------------------------------------------|
E|-------------------------------------------------------------------|

(The remainder of the song is made up the previous riffs. It should
be easy enough to follow.)
Suggest correction
comments
print report bad tab
6 comments total. Showing first comments.
0 reply
METSOAD 1,622 Mar 12, 2006 09:20 AM

Perfect Tab. well done

0 reply
punk_mike_88 70 Aug 27, 2006 10:56 PM

Best tab for Phantom I've seen yet, awesome.

0 reply
rockingamer2 10 Nov 28, 2006 03:41 PM

Great song. Great tab. Perfect!

guest
You may want to rate the tab now too:
select rating
Wanna post a correction for this tab? Suggest correction