Oops, an error
Loading. Please wait.

Phantom Of The Opera bass

version 2
60,461 views 141 this week
10 commentsread comments
1 2 3 4 5
x 33
add to favorites
×
Save as Personal and add changes to this tab that will be seen only by you. Learn more ›
×
You can save this tab as Personal to edit and correct it or add notes. All changes will be seen only by you. Learn more »
launch autoscroll
font size
0
reset
guitar tuner
backing track
0:00
0:00
edit
Autoscroll
slow
fast
+/-
esc
set tempo
stop
Author
Difficulty
Phantom of the Opera - Iron Maiden
Tabbed By : Your41Plague12
e-mail: stv_schmitt@yahoo.com
Tuning: Standard


[Intro]
0:00 - 0:21
        |3|    |3|
G|-----4-4-4--4------7-4---5-4------------|
D|-4-5----------5-4------5-----5--4-5-7---|
A|---------------------------------------2|
E|----------------------------------------|  x3

        |3|    |3|
G|-----4-4-4--4------7-4---5-4------------|
D|-4-5----------5-4------5-----5--4-5-7---|
A|----------------------------------------|
E|----------------------------------------|
  
   |3|     |3|    |3|   |3|    |3|    |3|   |3|    |3|    |3|    |3|
G|------------------------------------------------7-7-7--9-9-9--9-9-9-|
D|---------------------2-2-2--5-5-5--7-7-7--9-9-9---------------------|
A|-2-2-2--3-3-3--5-5-5------------------------------------------------|
E|--------------------------------------------------------------------|

    |3|    |3|    |3|    |3|    |3|
G|-7-9-9--9-9-9--7-9-9--9-9-9--9-9-9--9/-|
D|---------------------------------------|
A|---------------------------------------|
E|---------------------------------------|


[Riff A]
0:21 - 0:32
   |3|     |3|    |3|    |3|    |3|    |3|   
G|-----------------------------------------------|
D|--------5-------------5-------------5------5---|
A|-7-7-7----7-7--7-7-7----7-7--7-7-7----7-7----5-|
E|-----------------------------------------------|   x4

    |3|    |3|    |3|    |3|     |3|       |3|      |3|       |3| 
G|------------------------------------------------------------------|
D|--------7-------------7----------------8------------------8-------|
A|-9-9-9----9-9--9-9-9----9-9--10-10-10----10-10--10-10-10----10-10-|
E|------------------------------------------------------------------|  x3


[Riff B]
0:41 - 0:43
G|-------------------------|
D|---------------------5---|
A|-7-7---2-2---3-3---5---5-|
E|-----0-----0-----0-------|


[Riff A Variant]
0:43 - 0:48
    |3|     |3|   |3|    |3|    |3|    |3|   
G|-------------------------------------------------|
D|--------5-------------5-------------5------------|
A|-7-7-7----7-7--7-7-7----7-7--7-7-7----7-7--5-5-5-|
E|-------------------------------------------------|  x2

[Riff B] x1

G|-------------------------|
D|---------------------5---|
A|-7-7---2-2---3-3---5---5-|
E|-----0-----0-----0-------|

[Riff A Variant] x2
    |3|     |3|   |3|    |3|    |3|    |3|   
G|-------------------------------------------------|
D|--------5-------------5-------------5------------|
A|-7-7-7----7-7--7-7-7----7-7--7-7-7----7-7--5-5-5-|
E|-------------------------------------------------| 


[Verse]
0:48 - 2:02
        |3|    |3|
G|-----4-4-4--4------7-4---5-4------------|
D|-4-5----------5-4------5-----5--4-5-7---|
A|----------------------------------------|
E|----------------------------------------|

    |3|     |3|   |3|    |3|    |3|    |3|   
G|-------------------------------------------------|
D|--------5-------------5-------------5------------|
A|-7-7-7----7-7--7-7-7----7-7--7-7-7----7-7--5-5-5-|
E|-------------------------------------------------|

    |3|     |3|   |3|    |3|    |3|    |3|   
G|-------------------------------------------------|
D|--------5-------------5-------------5------------|
A|-7-7-7----7-7--7-7-7----7-7--7-7-7----7-7--5-5-5-|
E|-------------------------------------------------|

        |3|    |3|
G|-----4-4-4--4------7-4---5-4------------|
D|-4-5----------5-4------5-----5--4-5-7---|
A|----------------------------------------|
E|----------------------------------------|

    |3|     |3|   |3|    |3|    |3|    |3|   
G|-------------------------------------------------|
D|--------5-------------5-------------5------------|
A|-7-7-7----7-7--7-7-7----7-7--7-7-7----7-7--5-5-5-|
E|-------------------------------------------------|

    |3|     |3|   |3|    |3|    |3|    |3|   
G|-------------------------------------------------|
D|--------5-------------5-------------5------------|
A|-7-7-7----7-7--7-7-7----7-7--7-7-7----7-7--5-5-5-|
E|-------------------------------------------------|

G|-------------------------|
D|---------------------5---|
A|-7-7---2-2---3-3---5---5-|
E|-----0-----0-----0-------|

    |3|     |3|   |3|    |3|    |3|    |3|   
G|-------------------------------------------------|
D|--------5-------------5-------------5------------|
A|-7-7-7----7-7--7-7-7----7-7--7-7-7----7-7--5-5-5-|
E|-------------------------------------------------|

    |3|     |3|   |3|    |3|    |3|    |3|   
G|-------------------------------------------------|
D|--------5-------------5-------------5------------|
A|-7-7-7----7-7--7-7-7----7-7--7-7-7----7-7--5-5-5-|
E|-------------------------------------------------|

G|-------------------------|
D|---------------------5---|
A|-7-7---2-2---3-3---5---5-|
E|-----0-----0-----0-------|

    |3|     |3|   |3|    |3|    |3|    |3|   
G|-------------------------------------------------|
D|--------5-------------5-------------5------------|
A|-7-7-7----7-7--7-7-7----7-7--7-7-7----7-7--5-5-5-|
E|-------------------------------------------------|

    |3|     |3|   |3|    |3|    |3|    |3|   
G|-------------------------------------------------|
D|--------5-------------5-------------5------------|
A|-7-7-7----7-7--7-7-7----7-7--7-7-7----7-7--5-5-5-|
E|-------------------------------------------------|    (Whole Verse x2)


[Riff B] 2:02 - 2:05

G|-------------------------|
D|---------------------5---|
A|-7-7---2-2---3-3---5---5-|
E|-----0-----0-----0-------|

[Riff C] 2:05 - 2:47

G|-----9-------9-------9------------9-------9-------9-------|
D|---9---9---9---9---9---9--------9---9---9---9---9---9-----|
A|-7-------7-------7-------7-5--7-------7-------7-------7-9-|
E|----------------------------------------------------------|

G|-----7-------7-------5-------5-------9-------9-------9-------|
D|---7---7---7---7---5---5---5---5---9---9---9---9---9---9-----|
A|-5-------5-------3-------3-------7-------7-------7-------7-5-|
E|-------------------------------------------------------------|

G|-----9-------9-------9------------9-------9-------9-------|
D|---9---9---9---9---9---9--------9---9---9---9---9---9-----|
A|-7-------7-------7-------7-5--7-------7-------7-------7-9-|
E|----------------------------------------------------------|

G|-----7-------7-------5-------5-------9-------9-------9-------|
D|---7---7---7---7---5---5---5---5---9---9---9---9---9---9-----|
A|-5-------5-------3-------3-------7-------7-------7-------7-5-|
E|-------------------------------------------------------------|

G|-----9-------9-------9-------|
D|---9---9---9---9---9---9-----|
A|-7-------7-------7-------7-5-|
E|-----------------------------|

G|-----9-------9-------9------------9-------9-------9-------|
D|---9---9---9---9---9---9--------9---9---9---9---9---9-----|
A|-7-------7-------7-------7-5--7-------7-------7-------7-9-|
E|----------------------------------------------------------|

G|-----7-------7-------5-------5-------9-------9-------9-------|
D|---7---7---7---7---5---5---5---5---9---9---9---9---9---9-----|
A|-5-------5-------3-------3-------7-------7-------7-------7-5-|
E|-------------------------------------------------------------|

G|-----9-------9-------9------------9-------9-------9-------|
D|---9---9---9---9---9---9--------9---9---9---9---9---9-----|
A|-7-------7-------7-------7-5--7-------7-------7-------7-9-|
E|----------------------------------------------------------|

G|-----7-------7-------5-------5-------9-------9-------9-------|
D|---7---7---7---7---5---5---5---5---9---9---9---9---9---9-----|
A|-5-------5-------3-------3-------7-------7-------7-------7-5-|
E|-------------------------------------------------------------|

G|-----9-------9-------9------------9-------9-------9-------|
D|---9---9---9---9---9---9--------9---9---9---9---9---9-----|
A|-7-------7-------7-------7-5--7-------7-------7-------7-5-|
E|----------------------------------------------------------|


[Riff D]
2:47 - 3:22 
                                      |3|            
G|-------------------------------------------------7-5--------------------|
D|-----------------2---2-2-2--0-2-3--3-3-3--3---5------7-5-----5-7-5------|
A|-3---3-3--3-2-0------------------------------------------7---------7-5--|
E|------------------------------------------------------------------------|

                                      |3|            
G|-----------------------------------5-5-5--5------7-5-------------------|
D|-----------------2---2-2-2--0-2-3-------------5------7-5-----5-7-5-----|
A|-3---3-3--3-2-0------------------------------------------7---------7-5-|
E|-----------------------------------------------------------------------|x2


[Riff E]
3:22 - 3:38
     |3|        |3|       |3|        |3|
G|----14-16-----14-16-----14-16-----14-16-|
D|-14--------14--------14--------14-------|
A|----------------------------------------|
E|----------------------------------------|
      |3|       |3|       |3|       |3|
G|----14-16-----14-16-----14-16-----14-16-|
D|-14--------14--------14--------14-------|
A|----------------------------------------|
E|----------------------------------------|
      |3|       |3|       |3|       |3|
G|----14-16-----14-16-----14-16-----14-16-|
D|-14--------14--------14--------14-------|
A|----------------------------------------|
E|----------------------------------------|
      |3|       |3|       |3|       |3|
G|----12-14-----12-14-----12-14-----12-14-|
D|-12--------12--------12--------12-------|
A|----------------------------------------|
E|----------------------------------------|
      |3|       |3|       |3|       |3| 
G|----10-12-----10-12-----10-12-----10-12-|
D|-10--------10--------10--------10-------|
A|----------------------------------------|
E|----------------------------------------|
      |3|       |3|       |3|       |3|
G|----12-14-----12-14-----12-14-----12-14-|
D|-12--------12--------12--------12-------|
A|----------------------------------------|
E|----------------------------------------|
      |3|       |3|       |3|       |3|
G|----14-16-----14-16-----14-16-----14-16-|
D|-14--------14--------14--------14-------|
A|----------------------------------------|
E|----------------------------------------|
      |3|       |3|       |3|       |3|
G|----12-14-----12-14-----12-14-----12-14-|
D|-12--------12--------12--------12-------|
A|----------------------------------------|
E|----------------------------------------|
      |3|       |3|       |3|       |3|
G|----10-12-----10-12-----10-12-----10-12-|
D|-10--------10--------10--------10-------|
A|----------------------------------------|
E|----------------------------------------|
      |3|       |3|       |3|
G|----12-14-----12-14-----12-14-----------|
D|-12--------12--------12--------12-------|
A|----------------------------------------|
E|----------------------------------------|


[Riff F]
3:38 - 3:52
     |3|       |3|        |3|      |3|
G|---------------------16-----------------|
D|-14-14-14--17-14-14-----14-14--16-14-14-|
A|----------------------------------------|
E|----------------------------------------|
      |3|       |3|      |3|     |3|
G|--------------------14-----------------|
D|-12-12-12--14-12-12----12-12--14-12-12-|
A|---------------------------------------|
E|---------------------------------------|
      |3|      |3|        |3|      |3|
G|---------------------12-----------------|
D|-10-10-10--12-10-10-----10-10--12-10-10-|
A|----------------------------------------|
E|----------------------------------------|

      |3|       |3|      |3|     |3|
G|--------------------14-----------------|
D|-12-12-12--14-12-12----12-12--14-12-12-|
A|---------------------------------------|
E|---------------------------------------|

     |3|       |3|        |3|      |3|
G|---------------------16-----------------|
D|-14-14-14--17-14-14-----14-14--16-14-14-|
A|----------------------------------------|
E|----------------------------------------|

      |3|       |3|      |3|     |3|
G|--------------------14-----------------|
D|-12-12-12--14-12-12----12-12--14-12-12-|
A|---------------------------------------|
E|---------------------------------------|

      |3|      |3|        |3|      |3|
G|---------------------12-----------------|
D|-10-10-10--12-10-10-----10-10--12-10-10-|
A|----------------------------------------|
E|----------------------------------------|

      |3|       |3|      |3|     
G|-----------14-14-14--14-12-------------|
D|-12-12-12------------------14--12/-----|
A|---------------------------------------|
E|---------------------------------------|


[Riff G]
3:52 - 4:19
    |3|    |3|   |3|     |3|     |3|       |3|       |3|
G|------------------------------------------------------------------------|
D|------------------------------------------------------------------------|
A|-7-7-7--7-7-7--7-7-7--7-7-7--10-10-10--10-10-10--10-10-10---------------|
E|------------------------------------------------------------------------|

    |3|    |3|    |3|    |3|     |3|      |3|    |3|
G|------------------------------------------------------------------------|
D|-7-7-7--7-7-7--7-7-7--7-7-7--10-10-10--9-9-9--7-7-7---------------------|
A|------------------------------------------------------------------------|
E|------------------------------------------------------------------------|

    |3|    |3|    |3|    |3|     |3|       |3|       |3| 
G|------------------------------------------------------------------------|
D|------------------------------------------------------------------------|
A|-7-7-7--7-7-7--7-7-7--7-7-7--10-10-10--10-10-10--10-10-10---------------|
E|------------------------------------------------------------------------|

    |3|    |3|    |3|    |3|     |3|      |3|    |3|
G|------------------------------------------------------------------------|
D|-7-7-7--7-7-7--7-7-7--7-7-7--10-10-10--9-9-9--7-7-7---------------------|
A|------------------------------------------------------------------------|
E|------------------------------------------------------------------------|

    |3|    |3|    |3|    |3|     |3|       |3|       |3|       |3|
G|------------------------------------------------------------------------|
D|------------------------------------------------------------------------|
A|-7-7-7--7-7-7--7-7-7--7-7-7--10-10-10--10-10-10--10-10-10--10-10-10-----|
E|------------------------------------------------------------------------|

    |3|    |3|    |3|    |3|     |3|    |3|      |3|    |3|
G|---------------------------------------------10-9-7---------------------|
D|-7-7-7--7-7-7--7-7-7--7-7-7--10-9-7--10-9-7----------10-9-7-------------|
A|------------------------------------------------------------------------|
E|------------------------------------------------------------------------|

    |3|    |3|    |3|   |3|      |3|       |3|       |3|       |3|
G|------------------------------------------------------------------------|
D|------------------------------------------------------------------------|
A|-7-7-7--7-7-7--7-7-7--7-7-7--10-10-10--10-10-10--10-10-10--10-10-10-----|
E|------------------------------------------------------------------------|

    |3|    |3|    |3|    |3|     |3|    |3|     |3|     |3|
G|-----------------------------------------------------10-9-7-------------|
D|-7-7-7--7-7-7--7-7-7--7-7-7--10-9-7--10-9-7--10-9-7---------------------|
A|------------------------------------------------------------------------|
E|------------------------------------------------------------------------|


[Riff H]
4:19 - 4:33
           |3|    |3|    |3|            |3|       |3|       |3|
G|------------------------------------------------------------------------|
D|------------------------------------------------------------------------|
A|-7------7-7-7--7-7-7--7-7-7----10---10-10-10--10-10-10--10-10-10--------|
E|------------------------------------------------------------------------|

           |3|    |3|    |3|              |3|      |3|    |3|
G|------------------------------------------------------------------------|
D|-7------7-7-7--7-7-7--7-7-7----10----10-10-10---9-9-9--7-7-7------------|
A|------------------------------------------------------------------------|
E|------------------------------------------------------------------------|

[Riff I]
4:33 - 6:18

G|---------------------------------|
D|---------------------------------|
A|-7--7-7--7--7-7--7--7-7--7-5---5-|
E|-----------------------------7---|

G|---------------------------------|
D|---------------------------------|
A|-7--7-7--7--7-7--7--7-7--7--5----|
E|---------------------------------|

G|------------------------------------------------------|
D|-7--7-7--7--7-7--7--7-7--7-7-8-8-9--9-9--9--9-9-------|
A|-------------------------------------------------3--5-|
E|------------------------------------------------------| 
(Play as many times as needed until 6:18)

[Riff B] x1

G|-------------------------|
D|---------------------5---|
A|-7-7---2-2---3-3---5---5-|
E|-----0-----0-----0-------|

[Riff A Variant] x2
    |3|     |3|   |3|    |3|    |3|    |3|   
G|-------------------------------------------------|
D|--------5-------------5-------------5------------|
A|-7-7-7----7-7--7-7-7----7-7--7-7-7----7-7--5-5-5-|
E|-------------------------------------------------| 

[Riff B] x1

G|-------------------------|
D|---------------------5---|
A|-7-7---2-2---3-3---5---5-|
E|-----0-----0-----0-------|

[Riff A Variant] x2
    |3|     |3|   |3|    |3|    |3|    |3|   
G|-------------------------------------------------|
D|--------5-------------5-------------5------------|
A|-7-7-7----7-7--7-7-7----7-7--7-7-7----7-7--5-5-5-|
E|-------------------------------------------------| 

[Verse]
6:34 - End
        |3|    |3|
G|-----4-4-4--4------7-4---5-4------------|
D|-4-5----------5-4------5-----5--4-5-7---|
A|----------------------------------------|
E|----------------------------------------|

    |3|     |3|   |3|    |3|    |3|    |3|   
G|-------------------------------------------------|
D|--------5-------------5-------------5------------|
A|-7-7-7----7-7--7-7-7----7-7--7-7-7----7-7--5-5-5-|
E|-------------------------------------------------|

    |3|     |3|   |3|    |3|    |3|    |3|   
G|-------------------------------------------------|
D|--------5-------------5-------------5------------|
A|-7-7-7----7-7--7-7-7----7-7--7-7-7----7-7--5-5-5-|
E|-------------------------------------------------|

        |3|    |3|
G|-----4-4-4--4------7-4---5-4------------|
D|-4-5----------5-4------5-----5--4-5-7---|
A|----------------------------------------|
E|----------------------------------------|

    |3|     |3|   |3|    |3|    |3|    |3|   
G|-------------------------------------------------|
D|--------5-------------5-------------5------------|
A|-7-7-7----7-7--7-7-7----7-7--7-7-7----7-7--5-5-5-|
E|-------------------------------------------------|

    |3|     |3|   |3|    |3|    |3|    |3|   
G|-------------------------------------------------|
D|--------5-------------5-------------5------------|
A|-7-7-7----7-7--7-7-7----7-7--7-7-7----7-7--5-5-5-|
E|-------------------------------------------------|

G|-------------------------|
D|---------------------5---|
A|-7-7---2-2---3-3---5---5-|
E|-----0-----0-----0-------|

    |3|     |3|   |3|    |3|    |3|    |3|   
G|-------------------------------------------------|
D|--------5-------------5-------------5------------|
A|-7-7-7----7-7--7-7-7----7-7--7-7-7----7-7--5-5-5-|
E|-------------------------------------------------|

    |3|     |3|   |3|    |3|    |3|    |3|   
G|-------------------------------------------------|
D|--------5-------------5-------------5------------|
A|-7-7-7----7-7--7-7-7----7-7--7-7-7----7-7--5-5-5-|
E|-------------------------------------------------|

G|-----------------------------|
D|---------------------5-------|
A|-7-7---2-2---3-3---5---5--7/-|
E|-----0-----0-----0-----------|


************************************

| /  Slide up
||3|  triplet

************************************

            
            
Suggest correction
Creating personal tab
Creating personal tab
You can edit any tab online and save it as your Personal.

You can edit, replace or remove any tab part or add personal notes – all changes will be seen only by you.

Personal tabs can be accessed anytime from any device, even offline.
Learn more »
comments
print report bad tab
10 comments total. Showing first comments.
+2 reply
JP240Z 10 Aug 16, 2009 09:58 AM

nice job man 5 *'s

+3 reply
Thumper97 10 Aug 21, 2009 02:21 PM

Whoever you are, you deserve some sort of medal. Best tab I've ever seen for this.

0 reply
bassmasta.1515 10 Oct 26, 2009 09:42 AM

This is excellent man!!!100%
p.s. If you got any advice on how to nail that fast part(Riff E) please tell me cause that's the only part that's killing me!!!

guest
You may want to rate the tab now too:
select rating
Wanna post a correction for this tab? Suggest correction