Oops, an error
Loading. Please wait.

Phantom Of The Opera Tab

version 3
version 3
210,314 views 321 this week
27 commentsread comments
1 2 3 4 5
excellent!
x 81
add to favorites
launch autoscroll
font size
0
reset
how to read this tab
guitar tuner
Autoscroll
slow
fast
+/-
esc
set tempo
stop
Help us to improve Ultimate-Guitar.com Take our survey!
×
Band- Iron Maiden
Song- Phantom Of The Opera

Gtr I (E A D G B E) - 'Dave Murray dist electric'
Gtr II (E A D G B E) - 'Dennis Stratton dist electric'
Gtr III (E A D G B E) - 'Steve Harris bass'

[Intro]
  Q=170                                               1.,2.,3.
 4/4
  Gtrs I, II
            |-3-|     |-3-| |-3-| |-3-|   |-3-| |-3-|            |-3--|
   Q  Q  Q  E E E     E E E E E E Q Q Q   Q Q Q Q Q Q   H.      +E  E E
e|----------------||--------------------|-------------|-------------------||
B|----------------||o-------------------|-------------|------------------o||
G|----------------||--4-4-4-5p4---7-4---|-5-4---------|-------------------||
D|------------4h5-||------------5-----5-|-----5-4-5-7-|-------------4h5---||
A|--cymbals-------||o-------------------|-------------|-2-------(2)------o||
E|----------------||--------------------|-------------|-------------------||


  4.
  Gtr I
   |-3-|  |--3--|  |--3--|  |--3--|    |--3--|  |--3--|  |--3--|  |--3--|
   E E E  E  E  E  E  E  E  E  E  E    E  E  E  E  E  E  E  E  E  E  E  E
e|----------------------------------|-------------------------------------|
B|----------------------------------|-------------------12-12-12-15-15-15-|
G|----------------------------------|-12-12-12-14-14-14-------------------|
D|-9-9-9-10-10-10-12-12-12-14-14-14-|-------------------------------------|
A|----------------------------------|-------------------------------------|
E|----------------------------------|-------------------------------------|
|
| Gtr II
|  |-3-|  |--3--|  |--3--|  |--3--|    |--3--|  |--3--|  |--3--|  |--3--|
|  E E E  E  E  E  E  E  E  E  E  E    E  E  E  E  E  E  E  E  E  E  E  E
e|----------------------------------|-------------------------------------|
B|----------------------------------|-12-12-12-13-13-13-15-15-15-19-19-19-|
G|-7-7-7--9--9--9-11-11-11-12-12-12-|-------------------------------------|
D|----------------------------------|-------------------------------------|
A|----------------------------------|-------------------------------------|
E|----------------------------------|-------------------------------------|


    |--3--|  |--3--|  |--3--|  |--3--|    |--3--|  |--3--|  |--3--|
    E  E  E  E  E  E  E  E  E  E  E  E    E  E  E  E  E  E  E  E  E  Q
e|-15p12----15p12----15p12----15p12----|-15p12----15p12----15p12----15\--|
B|-------12-------12-------12-------12-|-------12-------12-------12------|
G|-------------------------------------|---------------------------------|
D|-------------------------------------|---------------------------------|
A|-------------------------------------|---------------------------------|
E|-------------------------------------|---------------------------------|
|
|    |--3--|  |--3--|  |--3--|  |--3--|    |--3--|  |--3--|  |--3--|
|   E  E  E  E  E  E  E  E  E  E  E  E    E  E  E  E  E  E  E  E  E  Q
e|-19p15----19p15----19p15----19p15----|-19p15----19p15----19p15----19\--|
B|-------17-------17-------17-------17-|-------17-------17-------17------|
G|-------------------------------------|---------------------------------|
D|-------------------------------------|---------------------------------|
A|-------------------------------------|---------------------------------|
E|-------------------------------------|---------------------------------|


    Gtrs I, II
     PM-------------------------------------|
     |-3-|  |-3-| |-3-|  |-3-|   |-3-|  |-3-|
     E E E  E E E E E E  E E E   E E E  E E E Q  Q   4x
e||----------------------------|---------------------||
B||o---------------------------|--------------------o||
G||----------------------------|--------------7------||
D||----------------------------|--------------5--7---||
A||o-7-7-7-10-7-7-7-7-7-10-7-7-|-7-7-7-10-7-7----5--o||
E||----------------------------|---------------------||


     PM-----------------------------------------------------------|
     |-3-|  |-3-| |-3-|  |-3-|    |--3--|  |--3--|  |--3--|  |--3--|
     E E E  E E E E E E  E E E    E  E  E  E  E  E  E  E  E  E  E  E  3x
e||----------------------------|--------------------------------------||
B||o---------------------------|-------------------------------------o||
G||----------------------------|--------------------------------------||
D||----------------------------|--------------------------------------||
A||o-9-9-9-12-9-9-9-9-9-12-9-9-|-10-10-10-13-10-10-10-10-10-13-10-10-o||
E||----------------------------|--------------------------------------||


                                PM----------------------|
    |-3-| |-3-|   |-3-| |-3-|   |-3-|  |-3-| |-3-|  |-3-|
    Q Q Q Q Q Q   Q Q Q Q Q Q   E E E  E E E E E E  E E E
e|--------------|-------------|---------------------------|
B|--------------|-------------|---------------------------|
G|--9-9---4-4---|-5-5---7-7-7-|---------------------------|
D|--9-9---4-4---|-5-5---7-7-7-|---------------------------|
A|--7-7---2-2---|-3-3---5-5-5-|-7-7-7-10-7-7-7-7-7-10-7-7-|
E|--------------|-------------|---------------------------|



   PM---------|         PM-------------------------------------|
   |-3-|  |-3-| |-3-|   |-3-|  |-3-| |-3-|  |-3-|   |-3-|  |-3-| |-3-|
   E E E  E E E Q Q Q   E E E  E E E E E E  E E E   E E E  E E E Q Q Q
e|--------------------|---------------------------|----------------------|
B|--------------------|---------------------------|----------------------|
G|--------------7-7-7-|---------------------------|--------------7-7-7---|
D|--------------7-7-7-|---------------------------|--------------7-7-7---|
A|-7-7-7-10-7-7-5-5-5-|-7-7-7-10-7-7-7-7-7-10-7-7-|-7-7-7-10-7-7-5-5-5---|
E|--------------------|---------------------------|----------------------|
                     |-Riff 1                                end Riff 1-|

[Verse]

   PM-----------------------|
   |-3-|  |-3-| |-3-|
   E E E  E E E E E E  E E E
e|---------------------------|
B|---------------------------|
G|---------------------------|
D|---------------------------|
A|-7-7-7-10-7-7-7-7-7-10-7-7-|
E|---------------------------|
|-Riff 2



   PM---------|
   |-3-|  |-3-| |--3--|  |-3--|   |-3-| |-3-| |-3-|   |-3-| |-3-|
   E E E  E E E E +E  E +E  E E   E E E E E E Q Q Q   Q Q Q Q Q Q
e|------------------------------|-------------------|-------------|
B|------------------------------|-------------------|-------------|
G|--------------7-(7)-7-(7)-----|-4-4-4-5p4---7-4---|-5-4---------|
D|--------------7-(7)-7-(7)-4h5-|-----------5-----5-|-----5-4-5-7-|
A|-7-7-7-10-7-7-5-(5)-5-(5)-----|-------------------|-------------|
E|------------------------------|-------------------|-------------|
                                                      end Riff 2-|

Riff 1
Riff 2
Riff 1 x2


[Chorus]

   |-3-| |-3-|   |-3-| |-3-|
   Q Q Q Q Q Q   Q Q Q Q Q Q
e|-------------|-------------|
B|-------------|-------------|
G|-9-9---4-4---|-5-5---7-7-7-|
D|-9-9---4-4---|-5-5---7-7-7-|
A|-7-7---2-2---|-3-3---5-5-5-|
E|-------------|-------------|
|-hy Fig 1    end Rhy Fig 1-|

Riff 1 x2
Rhy Fig 1
Riff 1
Riff 2

Riff 1
Riff 2

Riff 1 x2
Rhy Fig 1

Riff 1 x2
Rhy Fig 1

Riff 1
Riff 2
Rhy Fig 1


[Interlude]
     PM----------------------|           PM------------------------------|
     E E E E E E E E   E E E E Q  Q      E E E E E E E E   E E E E E E E E
e||------------------|----------------||-----------------|------------------|
B||o-----------------|---------------o||-----------------|------------------|
G||------9-------9---|-----9---9--7---||-----7-------7---|-----5-------5----|
D||----9---9---9---9-|---9---9-9--7---||---7---7---7---7-|---5---5---5---5--|
A||o-7-------7-------|-7-------7--5--o||-5-------5-------|-3-------3--------|
E||------------------|----------------||-----------------|------------------|


   PM----------------------|           PM----------------------|
   E E E E E E E E   E E E E Q  Q      E E E E E E E E   E E E E Q  Q
e|-----------------|---------------||------------------|---------------|
B|-----------------|---------------||o-----------------|---------------|
G|-----9-------9---|-----9---9--7--||------9-------9---|-----9---9--7--|
D|---9---9---9---9-|---9---9-9--7--||----9---9---9---9-|---9---9-9--7--|
A|-7-------7-------|-7-------7--5--||o-7-------7-------|-7-------7--5--|
E|-----------------|---------------||------------------|---------------|


   PM----------------------|         PM----------------------------|
   E E E E E E E E   E E E E Q  Q    E E E E E E E E   E E E E E E E E
e|-----------------|---------------|-----------------|-----------------|
B|-----------------|---------------|-----------------|-----------------|
G|-----9-------9---|-----9---9--7--|-----7-------7---|-----5-------5---|
D|---9---9---9---9-|---9---9-9--7--|---7---7---7---7-|---5---5---5---5-|
A|-7-------7-------|-7-------7--5--|-5-------5-------|-3-------3-------|
E|-----------------|---------------|-----------------|-----------------|


   PM----------------------|         PM----------------------|
   E E E E E E E E   E E E E Q  Q    E E E E E E E E   E E E E Q  Q
e|-----------------|---------------|-----------------|----------------||
B|-----------------|---------------|-----------------|---------------o||
G|-----9-------9---|-----9---9--7--|-----9-------9---|-----9---9--7---||
D|---9---9---9---9-|---9---9-9--7--|---9---9---9---9-|---9---9-9--7---||
A|-7-------7-------|-7-------7--5--|-7-------7-------|-7-------7--5--o||
E|-----------------|---------------|-----------------|----------------||


   PM----------------------|
   E E E E E E E E   E E E E Q  Q
e|-----------------|---------------||
B|-----------------|---------------||
G|-----9-------9---|-----9---9--7--||
D|---9---9---9---9-|---9---9-9--7--||
A|-7-------7-------|-7-------7--5--||
E|-----------------|---------------||


  Guitar Solo
  6/8
    Gtr I
     H.            +H              Q
ee|-------------|---------------------|
BB|-------------|---------------------|
GG|--5----------|--(5)----------------|
DD|--5----------|--(5)----------------|
AA|--3----------|--(3)----------------|
EE|-------------|---------------------|
|
 | Gtr II
 |  H.            +E    E  H
e|-------------|-------12------------|
B|-------------|-------12-15b17======|
G|-14b16=======|=(16)r---------------|
D|-------------|---------------------|
A|-------------|---------------------|
E|-------------|---------------------|


     Q.      E  E E    Q                Q   Q
e|-----------7------|--7-----------------------|
B|--------------8---|-------------------8------|
G|----------------9-|-----------------------9--|
D|------------------|--------------------------|
A|------------------|--------------------------|
E|---0--------------|--------------------------|
|
|                      |--3--|
|   +Q     Q    Q      E  E  E  a      +H
e|------------------|--------------------------|
B|-(17)r--15--------|--------------------------|
G|-------------14---|-16p14p12-12b14==(14)-----|
D|------------------|--------------------------|
A|------------------|--------------------------|
E|------------------|--------------------------|


    Q   Q        Q     Q   Q        Q
e|------5-----------|------7----------------|
B|---------------6--|---------------8-------|
G|--5---------------|--7--------------------|
D|------------------|-----------------------|
A|------------------|-----------------------|
E|------------------|-----------------------|
|
|       |--3--|            |--3--|  |--3--|
|   Q   E  E  E  Q     Q   E  E  E  E  E  E
e|-13--12-13-12-----|-15--13h15p13-12h13p12-|
B|--------------15--|-----------------------|
G|------------------|-----------------------|
D|------------------|-----------------------|
A|------------------|-----------------------|
E|------------------|-----------------------|


    Q.      E E E     Q     Q     Q
e|----------7-----|---7------------------|
B|------------8---|---------8------------|
G|--9-----------9-|---------9------------|
D|----------------|----------------------|
A|----------------|----------------------|
E|----------------|----------------------|
|
 |  H.               +Q     E  E  Q
e|----------------|--------------12b14===|
B|-15b17==========|=(17)r--12-15---------|
G|----------------|----------------------|
D|----------------|----------------------|
A|----------------|----------------------|
E|----------------|----------------------|


     Q.        E E E     Q           Q           Q
e|-------------8-----|---8---------------------------|
B|---5-----------8---|---------------8---------------|
G|---5-------------9-|---------------------------9---|
D|-------------------|-------------------------------|
A|-------------------|-------------------------------|
E|-------------------|-------------------------------|
|
 |  +E    E  H          +Q    a     +Q    a     +Q
e|-(14)r-13-12-------|-(12)--12b13-(13)--12b13-(13)--|
B|-------------------|-------------------------------|
G|-------------------|-------------------------------|
D|-------------------|-------------------------------|
A|-------------------|-------------------------------|
E|-------------------|-------------------------------|


    Q   E  E  E E    Q  Q   Q
e|------7-------7-|------------|
B|---------8------|--8---------|
G|--9---------9---|-----9---9--|
D|----------------|------------|
A|----------------|------------|
E|----------------|------------|
|
 |  Q.     E  Q      H      Q
e|-12--------12---|--------12--|
B|--------15------|-12---------|
G|----------------|------------|
D|----------------|------------|
A|----------------|------------|
E|----------------|------------|


    Q   Q        Q     Q   Q        Q
e|------5-----------|------7----------------|
B|---------------6--|---------------8-------|
G|--5---------------|--7--------------------|
D|------------------|-----------------------|
A|------------------|-----------------------|
E|------------------|-----------------------|
|
|      |--3--|            |--3--|  |--3--|
|  Q   E  E  E  Q     Q   E  E  E  E  E  E
|-13--12h13p12-----|-15--13h15p13-12h13p12-|
|--------------15--|-----------------------|
|------------------|-----------------------|
|------------------|-----------------------|
|------------------|-----------------------|
|------------------|-----------------------|


          Q.   E E E    Q     Q     Q
e|-------------7-----|--7--------------|
B|---------------8---|--------8--------|
G|--------9--------9-|--------------9--|
D|-------------------|-----------------|
A|-------------------|-----------------|
E|-------------------|-----------------|
|
 |  a     H.            E  E  E  E  Q
e|-------------------|-12-13-15-17-17--|
B|-15b17-15----------|-----------------|
G|-------------------|-----------------|
D|-------------------|-----------------|
A|-------------------|-----------------|
E|-------------------|-----------------|


    Q.   E E E    Q           Q        Q
e|-------8-----|--8-------------------------|
B|--5------8---|--------------8-------------|
G|--5--------9-|-----------------------9----|
D|-------------|----------------------------|
A|-------------|----------------------------|
E|-------------|----------------------------|
|
 |  H.            S  S  S  S  S  S  E  E  E
e|-19----------|-17h19p17h19p17h19s17-13-17-|
B|-------------|----------------------------|
G|-------------|----------------------------|
D|-------------|----------------------------|
A|-------------|----------------------------|
E|-------------|----------------------------|


    Q.                E  E  E    Q        Q  Q
e|--------------------7-------|--7---------------|
B|-----------------------8----|-----------8------|
G|--9-----------------------9-|-----------9------|
D|----------------------------|------------------|
A|----------------------------|------------------|
E|----------------------------|------------------|
|
|                               |--3--|
|  S  S  S  S  S  S  E  E  E    E  E  E  H
|-13h17p13h17p13h17s13-12-15-|-12-10-12-12------|
|----------------------------|------------------|
|----------------------------|------------------|
|----------------------------|------------------|
|----------------------------|------------------|
|----------------------------|------------------|


    Q   Q        Q     Q   Q        Q
e|------5-----------|------7----------------|
B|---------------6--|---------------8-------|
G|--5---------------|--7--------------------|
D|------------------|-----------------------|
A|------------------|-----------------------|
E|------------------|-----------------------|
|
|      |--3--|            |--3--|  |--3--|
|  Q   E  E  E  Q     Q   E  E  E  E  E  E
|-13--12-13-12-10--|-15--13h15p13-12h13p12-|
|------------------|-----------------------|
|------------------|-----------------------|
|------------------|-----------------------|
|------------------|-----------------------|
|------------------|-----------------------|


    Q.      E E E     Q       Q     Q
e|----------7-----|---7------------------|
B|------------8---|-----------8----------|
G|--9-----------9-|-----------9----------|
D|----------------|----------------------|
A|----------------|----------------------|
E|----------------|----------------------|
|
 |  H.               +E    E  E  E  E  E
e|----------------|----------------------|
B|-15b17==========|=(17)r-15-------12-12-|
G|----------------|----------12-14-------|
D|----------------|----------------------|
A|----------------|----------------------|
E|----------------|----------------------|


    Q   Q     Q       Q   Q     Q
e|------8----------|------8----------|
B|--5---------8----|------------8----|
G|--5--------------|--9--------------|
D|-----------------|-----------------|
A|-----------------|-----------------|
E|-----------------|-----------------|
|
 |  Q.     E  E  E    Q.     E  E  E
e|-----------------|-----------------|
B|-----------------|-----------------|
G|-14-----12-14p12-|-----------------|
D|-----------------|-15-----15-17p15-|
A|-----------------|-----------------|
E|-----------------|-----------------|


    Q           E  E  E  E           Q   Q   Q
e|--------------7--------7-|----------------------|
B|-----------------8-------|---------8------------|
G|--9-----------------9----|-------------9---9----|
D|-------------------------|----------------------|
A|-------------------------|----------------------|
E|-------------------------|----------------------|
|
 |  S  S  S  S  E  E  E  E    a     +H       E  E
e|-------------------------|-------------------12-|
B|-------------------------|----------------12----|
G|-------------------------|----------------------|
D|-14-15-14-15-14s12-14-12-|-12b14-(14)-----------|
A|-------------------------|----------------------|
E|-------------------------|----------------------|


        |--3--|            |--3--|  |--3--|
    Q   E  E  E  Q     Q   E  E  E  E  E  E    H.            +Q    Q  Q
e|------------------|-----------------------|-------------|--------------||
B|--6---5h=6p=5--3--|--8---6h=8p=6--5h=6p=5-|--3b5========|==(5)r--------||
G|------------------|-----------------------|-------------|--------------||
D|------------------|-----------------------|-------------|--------------||
A|------------------|-----------------------|-------------|--------------||
E|------------------|-----------------------|-------------|--------------||
|
|       |--3--|            |--3--|  |--3--|
|   Q   E  E  E  Q     Q   E  E  E  E  E  E    H.            +Q    Q  Q
e|-13--12h13p12-----|-15--13-15-13-12-13-12-|-------------|--------------||
B|--------------15--|-----------------------|-15b17=======|=(17)r--------||
G|------------------|-----------------------|-------------|--------------||
D|------------------|-----------------------|-------------|--------------||
A|------------------|-----------------------|-------------|--------------||
E|------------------|-----------------------|-------------|--------------||


 Breakdown
 4/4
  Gtr III
    |--3--|  |--3--|  |--3--|  |--3--|    |--3--|  |--3--|  |--3--|  |--3--|
    E  E  E  E  E  E  E  E  E  E  E  E    E  E  E  E  E  E  E  E  E  E  E  E
e|-------------------------------------|-------------------------------------|
B|-------------------------------------|-------------------------------------|
G|----14-16----14-16----14-16----14-16-|----14-16----14-16----14-16----14-16-|
D|-14-------14-------14-------14-------|-14-------14-------14-------14-------|
A|-------------------------------------|-------------------------------------|
E|-------------------------------------|-------------------------------------|


   4/4
    Gtr I
      |--3--|  |--3--|  |--3--|  |--3--|    |--3--|  |--3--|  |--3--|  |--3--|
      E  E  E  E  E  E  E  E  E  E  E  E    E  E  E  E  E  E  E  E  E  E  E  E
e||--19p15----19p15----19p15----19p15----|-17p14----17p14----17p14----17p14-----|
B||o-------17-------17-------17-------17-|-------15-------15-------15-------15--|
G||--------------------------------------|--------------------------------------|
D||--------------------------------------|--------------------------------------|
A||o-------------------------------------|--------------------------------------|
E||--------------------------------------|--------------------------------------|
|
|   Gtr II
|     |--3--|  |--3--|  |--3--|  |--3--|    |--3--|  |--3--|  |--3--|  |--3--|
|     E  E  E  E  E  E  E  E  E  E  E  E    E  E  E  E  E  E  E  E  E  E  E  E
e||--15p12----15p12----15p12----15p12----|-14p10----14p10----14p10----14p10-----|
B||o-------12-------12-------12-------12-|-------10-------10-------10-------10--|
G||--------------------------------------|--------------------------------------|
D||--------------------------------------|--------------------------------------|
A||o-------------------------------------|--------------------------------------|
E||--------------------------------------|--------------------------------------|


    |--3--|  |--3--|  |--3--|  |--3--|    |--3--|  |--3--|  |--3--|  |--3--|
    E  E  E  E  E  E  E  E  E  E  E  E    E  E  E  E  E  E  E  E  E  E  E  E  3x
e|-15p12----15p12----15p12----15p12----|-17p14----17p14----17p14----17p14-----||
B|-------13-------13-------13-------13-|-------15-------15-------15-------15-o||
G|-------------------------------------|--------------------------------------||
D|-------------------------------------|--------------------------------------||
A|-------------------------------------|-------------------------------------o||
E|-------------------------------------|--------------------------------------||
|
|   |--3--|  |--3--|  |--3--|  |--3--|    |--3--|  |--3--|  |--3--|  |--3--|
|   E  E  E  E  E  E  E  E  E  E  E  E    E  E  E  E  E  E  E  E  E  E  E  E  3x
e|-12p=8----12p=8----12p=8----12p=8----|-14p10----14p10----14p10----14p10-----||
B|--------8--------8--------8--------8-|-------10-------10-------10-------10-o||
G|-------------------------------------|--------------------------------------||
D|-------------------------------------|--------------------------------------||
A|-------------------------------------|-------------------------------------o||
E|-------------------------------------|--------------------------------------||


     |--3--|  |--3--|  |--3--|  |--3--|    |--3--|  |--3--|  |--3--|  |--3--|
      E  E  E  E  E  E  E  E  E  E  E  E    E  E  E  E  E  E  E  E  E  E  E  E
e||--19p15----19p15----19p15----19p15----|-17p14----17p14----17p14----17p14----|
B||o-------17-------17-------17-------17-|-------15-------15-------15-------15-|
G||--------------------------------------|-------------------------------------|
D||--------------------------------------|-------------------------------------|
A||o-------------------------------------|-------------------------------------|
E||--------------------------------------|-------------------------------------|
|
|     |--3--|  |--3--|  |--3--|  |--3--|    |--3--|  |--3--|  |--3--|  |--3--|
|     E  E  E  E  E  E  E  E  E  E  E  E    E  E  E  E  E  E  E  E  E  E  E  E
e||--15p12----15p12----15p12----15p12----|-14p10----14p10----14p10----14p10----|
B||o-------12-------12-------12-------12-|-------10-------10-------10-------10-|
G||--------------------------------------|-------------------------------------|
D||--------------------------------------|-------------------------------------|
A||o-------------------------------------|-------------------------------------|
E||--------------------------------------|-------------------------------------|


    |--3--|  |--3--|  |--3--|  |--3--|    |--3--|  |--3--|  |--3--|  |--3--|
    E  E  E  E  E  E  E  E  E  E  E  E    E  E  E  E  E  E  E  E  E  E  E  E  3x
e|-15p12----15p12----15p12----15p12----|-12-12-12-12-12-12-14-14-14-14-14-14--||
B|-------13-------13-------13-------13-|-13-13-13-13-13-13-15-15-15-15-15-15-o||
G|-------------------------------------|--------------------------------------||
D|-------------------------------------|--------------------------------------||
A|-------------------------------------|-------------------------------------o||
E|-------------------------------------|--------------------------------------||
|
|   |--3--|  |--3--|  |--3--|  |--3--|    |--3--|  |--3--|  |--3--|  |--3--|
|   E  E  E  E  E  E  E  E  E  E  E  E    E  E  E  E  E  E  E  E  E  E  E  E  3x
e|-12p=8----12p=8----12p=8----12p=8----|-12-12-12-12-12-12-14-14-14-14-14-14--||
B|--------8--------8--------8--------8-|-------------------------------------o||
G|-------------------------------------|--------------------------------------||
D|-------------------------------------|--------------------------------------||
A|-------------------------------------|-------------------------------------o||
E|-------------------------------------|--------------------------------------||


      |--3--|  |--3--|  |--3--|  |--3--|
      E  E  E  E  E  E  E  E  E  E  E  E
e||--19p15----19p15----19p15----19p15----|
B||o-------17-------17-------17-------17-|
G||--------------------------------------|
D||--------------------------------------|
A||o-------------------------------------|
E||--------------------------------------|
|
|     |--3--|  |--3--|  |--3--|  |--3--|
|     E  E  E  E  E  E  E  E  E  E  E  E
e||--15p12----15p12----15p12----15p12----|
B||o-------12-------12-------12-------12-|
G||--------------------------------------|
D||--------------------------------------|
A||o-------------------------------------|
E||--------------------------------------|


    |--3--|  |--3--|  |--3--|  |--3--|    |--3--|  |--3--|  |--3--|  |--3--|
    E  E  E  E  E  E  E  E  E  E  E  E    E  E  E  E  E  E  E  E  E  E  E  E
e|-17p14----17p14----17p14----17p14----|-15p12----15p12----15p12----15p12----|
B|-------15-------15-------15-------15-|-------13-------13-------13-------13-|
G|-------------------------------------|-------------------------------------|
D|-------------------------------------|-------------------------------------|
A|-------------------------------------|-------------------------------------|
E|-------------------------------------|-------------------------------------|
|
|  |--3--|  |--3--|  |--3--|  |--3--|    |--3--|  |--3--|  |--3--|  |--3--|
|  E  E  E  E  E  E  E  E  E  E  E  E    E  E  E  E  E  E  E  E  E  E  E  E
|-14p10----14p10----14p10----14p10----|-12p=8----12p=8----12p=8----12p=8----|
|-------10-------10-------10-------10-|--------8--------8--------8--------8-|
|-------------------------------------|-------------------------------------|
|-------------------------------------|-------------------------------------|
|-------------------------------------|-------------------------------------|
|-------------------------------------|-------------------------------------|


  1.                                     2.
    |--3--|  |--3--|  |--3--|  |--3--|      |--3--|  |--3--|  |--3--|  |--3--|
    E  E  E  E  E  E  E  E  E  E  E  E      E  E  E  E  E  E  E  E  E  E  E  E
e|-------------------13-12-10-----------||----------------------------13-12-10-||
B|-13-12-10-13-12-10----------13-12-10-o||-13-12-10-13-12-10-13-12-10----------||
G|--------------------------------------||-------------------------------------||
D|--------------------------------------||-------------------------------------||
A|-------------------------------------o||-------------------------------------||
E|--------------------------------------||-------------------------------------||
|
|  |--3--|  |--3--|  |--3--|  |--3--|      |--3--|  |--3--|  |--3--|  |--3--|
|  E  E  E  E  E  E  E  E  E  E  E  E      E  E  E  E  E  E  E  E  E  E  E  E
|-12-10--8-12-10--8-17-15-13-12-10--8--||----------------------------13-12-10-||
|-------------------------------------o||-13-12-10-13-12-10-13-12-10----------||
|--------------------------------------||-------------------------------------||
|--------------------------------------||-------------------------------------||
|-------------------------------------o||-------------------------------------||
|--------------------------------------||-------------------------------------||


           |-3-|                      |--3--|
   H.      E E E    H.                E  E  E
e|---------------|----------------------------|
B|---------------|----------------------------|
G|---------------|----------------------------|
D|-9-------9-9-9-|-12----------------12-12-12-|
A|-7-------7-7-7-|-10----------------10-10-10-|
E|---------------|----------------------------|
|
|         |-3-|         |--3--|      |--3--|
| H.      E E E    Q    E  E  E  Q   E  E  E
|---------------|----------------------------|
|---------------|----------------------------|
|---------------|----------------------------|
|-9-------9-9-9-|-12------------12-----------|
|-7-------7-7-7-|-10---10-10-10-10--10-10-10-|
|---------------|----------------------------|


                      |--3--|    |--3--|  |--3--|  |--3--|
    H.                E  E  E    E  E  E  E  E  E  E  E  E  Q
e|----------------------------|-----------------------------------|
B|----------------------------|-----------------------------------|
G|----------------------------|-12-12-12-12-12-12-11-11-11-11-----|
D|-14----------------14-14-14-|-10-10-10-10-10-10--9--9--9--9-----|
A|-12----------------12-12-12-|-----------------------------------|
E|----------------------------|-----------------------------------|
|
|       |--3--|      |--3--|             |--3--|           |-3-|
|  Q    E  E  E  Q   E  E  E    Q        E  E  E  Q        E E E
|----------------------------|-----------------------------------|
|----------------------------|-----------------------------------|
|----------------------------|--5-----------------4--------------|
|-14------------14-----------|--5-----------------4--------------|
|-12---12-12-12-12--12-12-12-|--3--------3--3--3--2--------2-2-2-|
|----------------------------|-----------------------------------|


                |-3-|                      |--3--|
   H.           E E E    H.                E  E  E
e|--------------------|----------------------------|
B|--------------------|----------------------------|
G|--------------------|----------------------------|
D|-9------------9-9-9-|-12----------------12-12-12-|
A|-7------------7-7-7-|-10----------------10-10-10-|
E|--------------------|----------------------------|
|
|     |-3-|    |-3-|         |--3--|      |--3--|
| Q   E E E Q  E E E    Q    E  E  E  Q   E  E  E
|--------------------|----------------------------|
|--------------------|----------------------------|
|--------------------|----------------------------|
|-9---------9--------|-12------------12-----------|
|-7---7-7-7-7--7-7-7-|-10---10-10-10-10--10-10-10-|
|--------------------|----------------------------|


                      |--3--|    |--3--|  |--3--|  |--3--|
    H.                E  E  E    E  E  E  E  E  E  E  E  E  Q
e|----------------------------|-------------------------------------||
B|----------------------------|-------------------------------------||
G|----------------------------|-12-12-12-12-12-12-11-11-11-11-------||
D|-14----------------14-14-14-|-10-10-10-10-10-10--9--9--9--9-------||
A|-12----------------12-12-12-|-------------------------------------||
E|----------------------------|-------------------------------------||
|
|       |--3--|      |--3--|             |--3--|           |-3-|
|  Q    E  E  E  Q   E  E  E    Q        E  E  E  Q        E E E
|----------------------------|-------------------------------------||
|----------------------------|-------------------------------------||
|----------------------------|--5-----------------4----------------||
|-14------------14-----------|--5-----------------4----------------||
|-12---12-12-12-12--12-12-12-|--3--------3--3--3--2--------2-2-2---||
|----------------------------|-------------------------------------||


     Q=120
     Gtrs I, II
     E S S E S S E S S S S S S   E S S E S S E S S S S S S
e||----------------------------|--------------------------|
B||o---------------------------|--------------------------|
G||----------------------------|--------------------------|
D||--9-9-9-9-9-9-9-9-9-9-------|-9-9-9-9-9-9-9-9-9-9------|
A||o-7-7-7-7-7-7-7-7-7-7-5---5-|-7-7-7-7-7-7-7-7-7-7-5---5|
E||------------------------7---|-----------------------7--|
 |-Rhy Fig 2

    E  S  S  E  S  S  E  S  S  E  S  S    E  S  S  Q  Q  Q
e|-------------------------------------|---------------------||
B|-------------------------------------|--------------------o||
G|-------------------------------------|---------------------||
D|-12-12-12-12-12-12-12-12-12-12-12S13-|-14-14-14-14--5--7---||
A|-10-10-10-10-10-10-10-10-10-10-10S11-|-12-12-12-12--3--5--o||
E|-------------------------------------|---------------------||
                                              end Rhy Fig 2-|

   Gtr I
   E  S  S  E.  S  S  S  S  S  +E   E    +E   S  S  E.  S  S  S  S  S  +E   E
e|------------------------------------|----------------------------10-(10)----|
B|-------------------------12-(12)----|------12-10-12--10-12-10-12---------12-|
G|---12-11-12--11-12-11-12---------12-|-(12)----------------------------------|
D|------------------------------------|---------------------------------------|
A|------------------------------------|---------------------------------------|
E|------------------------------------|---------------------------------------|
|
 | Gtr II
 | E  S  S  E.  S  S  S  S  S  +E   E    +E   S  S  E.  S  S  S  S  S  +E   E
e|------------------------------------|-----------------------------7--(7)----|
B|--------------------------8--(8)----|-------8--7--8---7--8--7--8----------8-|
G|----9--7--9---7--9--7--9----------9-|--(9)----------------------------------|
D|------------------------------------|---------------------------------------|
A|------------------------------------|---------------------------------------|
E|------------------------------------|---------------------------------------|
|Riff 3 (both Gtrs)

    +E   S  S  E.  S  S  S  S  S  +E   E
e|---------------------------------------|
B|-(12)-12-10-12--10-12-10-12-10-(10)----|
G|------------------------------------12-|
D|---------------------------------------|
A|---------------------------------------|
E|---------------------------------------|
|
 |  +E   S  S  E.  S  S  S  S  S  +E   E
e|---------------------------------------|
B|--(8)--7--8--7---8--7--8--7--8--(8)----|
G|-------------------------------------9-|
D|---------------------------------------|
A|---------------------------------------|
E|---------------------------------------|


                    |--3--|  |--3--|
    +E   S  S  Q    E  E  E  E  E  E    E  S  S  E.  S  S  S  S  S  +E   E
e|-----------------------------------|-------------------------------------|
B|-----------------12-10----10-12-10-|--------------------------12-(12)----|
G|-(12)-12-11-12---------12----------|-12-12-11-12--11-12-11-12---------12-|
D|-----------------------------------|-------------------------------------|
A|-----------------------------------|-------------------------------------|
E|-----------------------------------|-------------------------------------|
|
|                  |--3--|  |--3--|
|  +E   S  S  E E  E  E  E  E  E  E    E  S  S  E.  S  S  S  S  S  +E   E
|-----------------------------------|-------------------------------------|
|------------------8--7-----7--8--7-|---------------------------8--(8)----|
|--(9)--9--7--9-9--------9----------|--9--9--7--9---7--9--7--9----------9-|
|-----------------------------------|-------------------------------------|
|-----------------------------------|-------------------------------------|
|-----------------------------------|-------------------------------------|


    +E   S  S  E.  S  S  S  S  S  +E   E
e|----------------------------10-(10)----|
B|------12-10-12--10-12-10-12---------12-|
G|-(12)----------------------------------|
D|---------------------------------------|
A|---------------------------------------|
E|---------------------------------------|
|
 |  +E   S  S  E.  S  S  S  S  S  +E   E
e|-----------------------------7--(7)----|
B|-------8--7--8---7--8--7--8----------8-|
G|--(9)----------------------------------|
D|---------------------------------------|
A|---------------------------------------|
E|---------------------------------------|


                                                            |--3--|  |--3--|
    +E   S  S  E.  S  S  S  S  S  +E   E    +E   S  S  Q    E  E  E  E  E  E
e|---------------------------------------|-----------------------------------|
B|-(12)-12-10-12--10-12-10-12-10-(10)----|-----------------12-10----10-12-10-|
G|------------------------------------12-|-(12)-12-11-12---------12----------|
D|---------------------------------------|-----------------------------------|
A|---------------------------------------|-----------------------------------|
E|---------------------------------------|-----------------------------------|
|
|                                                          |--3--|  |--3--|
|  +E   S  S  E.  S  S  S  S  S  +E   E    +E   S  S  E E  E  E  E  E  E  E
|---------------------------------------|-----------------------------------|
|--(8)--8--7--8---7--8--7--8--7--(7)----|------------------8--7-----7--8--7-|
|-------------------------------------9-|--(9)--9--7--9-9--------9----------|
|---------------------------------------|-----------------------------------|
|---------------------------------------|-----------------------------------|
|---------------------------------------|-----------------------------------|
                                                                 end Riff 3-|

  Dave Murray Guitar Solo
    Q           Q    E     +Q    E
e|-------------12---------------------|
B|-15b17------------15b17-(17)--15b17-|
G|------------------------------------|
D|------------------------------------|
A|------------------------------------|
E|------------------------------------|
|
|  S    S S S  H.
|------------------------------------|
|------------------------------------|
|------------------------------------|
|--9----9---9--9---------------------|
|--7----7---7--7---------------------|
|------------------------------------|
|-Rhy Fig 3

                  |--3---|  |--3--|                   |--3--|
    +S   S  S  S  S   S  S  S  S  S  E     S     +S   S  S  S  S  S
e|------------------------------------------------------------12-12-|
B|-(17)-15----15-13--15-13-12-13-12------------------12-14-15-------|
G|---------12-----------------------14b16-14b16-(16)----------------|
D|------------------------------------------------------------------|
A|------------------------------------------------------------------|
E|------------------------------------------------------------------|
|
 |   S   S  S  S  H.
e|------------------------------------------------------------------|
B|------------------------------------------------------------------|
G|------------------------------------------------------------------|
D|---9---9-----9--9-------------------------------------------------|
A|---7---7-----7--7-------------------------------------------------|
E|------------------------------------------------------------------|


    E        E        E.    +S   S  S  E  +E   S  S
e|-12b14----12b14----12b14r(12)----12------------12-|
B|------------------------------15----12-(12)-15----|
G|--------------------------------------------------|
D|--------------------------------------------------|
A|--------------------------------------------------|
E|--------------------------------------------------|
|
 |  S     S  S     S  H.
e|--------------------------------------------------|
B|--------------------------------------------------|
G|--------------------------------------------------|
D|-12----12-------12-12-----------------------------|
A|-10----10-------10-10-----------------------------|
E|--------------------------------------------------|


    |---3----|  |---3----|  |--3--|  |-3--|
    S  S     S  S  S     S  S  S  S  S S  S  S  S  E  +E   S  S
e|--------------------------------------------------------------|
B|-15h17p===15-14h15p===14-12p10h12p10S8------------------------|
G|---------------------------------------14-12----12-(12)-------|
D|---------------------------------------------14---------------|
A|--------------------------------------------------------14-14-|
E|--------------------------------------------------------------|
|
 |  S     S     S     S     Q                Q         Q
e|--------------------------------------------------------------|
B|--------------------------------------------------------------|
G|--------------------------------------------------------------|
D|-14----14----------14----14----------------5---------7--------|
A|-12----12----------12----12----------------3---------5--------|
E|--------------------------------------------------------------|
                                                 end Rhy Fig 3-|

Gtr 1 plays Rhy Fig 3 (1st 3 bars)
           |-3-|       |-3--|
   S S S S S S S  S S  S S  S E  Q
e|----------------------------------|
B|-----7------------------------12--|
G|-8-9---9-8h9p8----8---------------|
D|---------------10---10p9h10-9-----|
A|----------------------------------|
E|----------------------------------|



                |--3--|  |--3--|
    S  S  S  S  S  S  S  S  S  S  T  T  T  T  E  +E   S  S
e|-11-12-14-12-11h12p11-------------------------------------|
B|----------------------13-16-13-12-13-12-11-13-(13)-13-15--|
G|----------------------------------------------------------|
D|----------------------------------------------------------|
A|----------------------------------------------------------|
E|----------------------------------------------------------|



    |----3-----|     |--3---|
    E     E    E     E   E  E  +Q    S  S     +E
e|-------14---12--------12------------------------|
B|-15---------------15-----12-(12)----------------|
G|----------------------------------12-14b16-(16)-|
D|------------------------------------------------|
A|------------------------------------------------|
E|------------------------------------------------|



                              |--3--|  |--3--|
    +S   S  S  S  S  S  S  S  S  S  S  S  S  S  S      S   E
e|-----------------------------------------------------------------||
B|------------12-------12------------------------------------------||
G|-(16)-14-12----14-12----12-11h12p11h12p11----11-----12--14b16----||
D|------------------------------------------12---------------------||
A|-----------------------------------------------------------------||
E|-----------------------------------------------------------------||
|
 |   S   S  S  S  Q           Q                 S     +S   S     S
e|--------------------------------------------------------12-------||
B|-----------------------------------------------------------------||
G|---------------------------------------------14b16r(14)-------15-||
D|--14--14----14-14-----------5------------------------------------||
A|--12--12----12-12-----------3------------------------------------||
E|-----------------------------------------------------------------||


 Dennis Stratton Guitar Solo
Gtr I plays Rhy Fig 3 x2

    E.        S     +E   E     +Q    S  S  S  S
e|----------------------------------12----------|
B|-15b17-----15b17-(17)-15b17-(17)-----12-------|
G|----------------------------------------14-12-|
D|----------------------------------------------|
A|----------------------------------------------|
E|----------------------------------------------|


   S     +E     S  +E   E  +E   S S  S     S  S S
e|-----------------------------------------12------|
B|--------------------------------------------12---|
G|-14b16-(16)---12-(12)---------12---14b16---------|
D|----------------------14-(14)--------------------|
A|-------------------------------------------------|
E|-------------------------------------------------|



    Q             Q    S  S  S S  E     +E     +H               E  Q    E
e|---------------15-------------------------|------------------12-15---12-|
B|---------------17---17-15------15b17-(17)-|-(17)------------------------|
G|-19b21--------------------16--------------|-----------------------------|
D|------------------------------------------|-----------------------------|
A|------------------------------------------|-----------------------------|
E|------------------------------------------|-----------------------------|


    Q           E.    S  S  E.  E  E    S  S  S  S  S   S  E  Q   E  E
e|-13b15-------13b15-12----12--15-12-|-19p15----17p15-----15--------15-|
B|----------------------15-----------|-------17--------17----17--17----|
G|-----------------------------------|---------------------------------|
D|-----------------------------------|---------------------------------|
A|-----------------------------------|---------------------------------|
E|-----------------------------------|---------------------------------|



    S  S  S  S  S   S  S  S  S  S  S  S  S  S  E
e|-19p15----17p15-----19p15----17p15----19p15----|
B|-------17--------17-------17-------17-------17-|
G|-----------------------------------------------|
D|-----------------------------------------------|
A|-----------------------------------------------|
E|-----------------------------------------------|



    |---3----|  |---3----|  |--3--|  |--3--|  |--3--|  |--3--|
    S  S     S  S  S     S  S  S  S  S  S  S  S  S  S  S  S  S  S  S  E
e|-19p15-------17p15-------19p15----17p15----19p15----17p15----19p15----|
B|----------17----------17-------17-------17-------17-------17-------17-|
G|----------------------------------------------------------------------|
D|----------------------------------------------------------------------|
A|----------------------------------------------------------------------|
E|----------------------------------------------------------------------|


Riff 3

Gtr I plays Rhy Fig 2 x2
Gtr II plays Rhy Fig 3 x2


  a tempo Q=170
  Gtrs I, II

Rhy Fig 1
Riff 1

Rhy Fig 1
Riff 1
Riff 2
Riff 1
Riff 2


[Chorus]
Riff 1 x2
Rhy Fig 1
Riff 1
Rhy Fig 1


   Q   Q  H
e|-------------*|
B|-------------*|
G|-------------*|
D|-9\----------*|
A|-7\----------*|
E|-------------*|



************************************

| x    Dead note
| (n)  Ghost note
| h    Hammer-on
| p    Pull-off
| b    Bend
| \    Slide down
| s    Slide Up


************************************
Suggest correction
comments
print report bad tab
27 comments total. Showing first comments.
0 reply
invisible_mann 10 wrote on May 15 2005, 12:00 am

Good Job

0 reply
..NEM.. 315 wrote on February 28 2006, 02:45 pm

nice tab

0 reply
..NEM.. 315 wrote on February 28 2006, 02:45 pm

5*

guest
You may want to rate the tab now too:
select rating
Wanna post a correction for this tab? Suggest correction