Oops, an error
Loading. Please wait.

Phantom Of The Opera bass

version 6
1,408 views 12 this week
no commentswrite comment
1 2 3 4 5
x 11
add to favorites
×
Save as Personal and add changes to this tab that will be seen only by you. Learn more ›
×
You can save this tab as Personal to edit and correct it or add notes. All changes will be seen only by you. Learn more »
launch autoscroll
font size
0
reset
guitar tuner
backing track
0:00
0:00
edit
Autoscroll
slow
fast
+/-
esc
set tempo
stop
Author
Difficulty
                             Phantom Of The Opera                               


                                 Iron Maiden


Steve Harris


            Intro                                                      
     S      S     S S S S S S S E  E  E  E     E  E  E  E  E  E  Q     
G||----||-----------4-4-4-5-4---7--4-----5--|--4----------------------|
D||----||*--4-----5-----------5-------5-----|-----5--4--5--7----------|
A||----||*----------------------------------|-----------------2--L----|
E||----||-----------------------------------|-------------------------|


  H        H         3x  S S S S S S S S E  E  E  E   
---------------------||------4-4-4-5-4---7--4-----5--|
--------------------*||--4-5-----------5-------5-----|
--L-----------------*||------------------------------|
---------------------||------------------------------|


  E  E  E  E  E  S S S S S S    S S S S S S S S S S S S S S S  S  
--4--------------------------|-----------------------------------|
-----5--4--5--7--------------|--------------5-5-5-7-7-7-9-9-9-12-|
-----------------2-2-2-3-3-3-|--5-5-5-7-7-7----------------------|
-----------------------------|-----------------------------------|


   S  S  S  S  S  S  S  S  S  S  S  S  S  S  S  S  S  S  S  S  E.   S      S S  
-----------------------------------------------------------------------|-------|
--12-12-14-14-14-14-14-14-12-14-14-14-14-14-12-14-14-14-14-14-14-------|-------|
-------------------------------------------------------------------14\-|---L---|
-----------------------------------------------------------------------|-------|


    Riff A                                            
    S      S S S S S S S S S S S S S S S S S E.  E.   
|----------------------------------------------------|
|*-------------5-----------5-----------5-----5-------|
|*--7------7-7---7-7-7-7-7---7-7-7-7-7---7-7-----5---|
|----------------------------------------------------|


  S S S S S S S S S S S S S S S S S S E.  E.     
-----------------------------------------------||
--------5-----------5-----------5-----5-------*||
--7-7-7---7-7-7-7-7---7-7-7-7-7---7-7-----5---*||
-----------------------------------------------||


   Riff B                                                            
   S      S S S S S S S S S S S  S  S  S S  S  S  S  S  S S  S  S    
-------------------------------------------------------------------||
*-------------7-----------7--------------8----------------8-------*||
*--9------9-9---9-9-9-9-9---9-9-10-10-10---10-10-10-10-10---10-10-*||
-------------------------------------------------------------------||


  S S S S S S S S S S S S  S  S  S S  S  S  S  S  S S  S  S  
------------------------------------------------------------|
--------7-----------7--------------8----------------8-------|
--9-9-9---9-9-9-9-9---9-9-10-10-10---10-10-10-10-10---10-10-|
------------------------------------------------------------|


  Riff C                                     
  E      E  E  E  E  S S E  E  S S E  E  E   
--------------------------------------------|
------------5-------------------------5-----|
--7------7-----2--2--2-2-3--3--3-3-5-----5--|
--------------------------------------------|


    S S S S S S S S S S S S S S S S S S E  E  E     
|-------------------------------------------------||
|*--------5-----------5-----------5--------------*||
|*--7-7-7---7-7-7-7-7---7-7-7-7-7---7-7-5--5--5--*||
|-------------------------------------------------||


  E  E  E  E  E  S S E  E  S S E  E  E   
----------------------------------------|
--------5-------------------------5-----|
--7--7-----2--2--2-2-3--3--3-3-5-----5--|
----------------------------------------|


  S S S S S S S S S S S S S S S S S S E  E  E   
-----------------------------------------------|
--------5-----------5-----------5--------------|
--7-7-7---7-7-7-7-7---7-7-7-7-7---7-7-5--5--5--|
-----------------------------------------------|


  S S S S S S S S S S S S S S S S S S E  E  S S  
------------------------------------------------|
--------5-----------5-----------5-----------4-5-|
--7-7-7---7-7-7-7-7---7-7-7-7-7---7-7-5--5------|
------------------------------------------------|


  Verso A                                       
  S       S S S S S E  E  E  E  E  E  E  E  E   
--4-------4-4-5-4---7--4-----5--4--------------|
------------------5-------5--------5--4--5--7--|
-----------------------------------------------|
-----------------------------------------------|


  S S S S S S S S S S S S S S S S S S E  E  E   
-----------------------------------------------|
--------5-----------5-----------5--------------|
--7-7-7---7-7-7-7-7---7-7-7-7-7---7-7-5--5--5--|
-----------------------------------------------|


  S S S S S S S S S S S S S S S S S S E  E  S S  
------------------------------------------------|
--------5-----------5-----------5-----------4-5-|
--7-7-7---7-7-7-7-7---7-7-7-7-7---7-7-5--5------|
------------------------------------------------|


  S S S S S S E  E  E  E  E  E  E  E  E   
--4-4-4-5-4---7--4-----5--4--------------|
------------5-------5--------5--4--5--7--|
-----------------------------------------|
-----------------------------------------|


  S S S S S S S S S S S S S S S S S S E  E  E   
-----------------------------------------------|
--------5-----------5-----------5--------------|
--7-7-7---7-7-7-7-7---7-7-7-7-7---7-7-5--5--5--|
-----------------------------------------------|


  S S S S S S S S S S S S S S S S S S E  E  E   
-----------------------------------------------|
--------5-----------5-----------5--------------|
--7-7-7---7-7-7-7-7---7-7-7-7-7---7-7-5--5--5--|
-----------------------------------------------|


  Coro                                     
  E    E  E  E  E  S S E  E  S S E  E  E   
------------------------------------------|
----------5-------------------------5-----|
--7----7-----2--2--2-2-3--3--3-3-5-----5--|
------------------------------------------|


  S S S S S S S S S S S S S S S S S S E  E  E   
-----------------------------------------------|
--------5-----------5-----------5--------------|
--7-7-7---7-7-7-7-7---7-7-7-7-7---7-7-5--5--5--|
-----------------------------------------------|


  S S S S S S S S S S S S S S S S S S E  E  E   
-----------------------------------------------|
--------5-----------5-----------5--------------|
--7-7-7---7-7-7-7-7---7-7-7-7-7---7-7-5--5--5--|
-----------------------------------------------|


  E  E  E  E  E  S S E  E  S S E  E  E   
----------------------------------------|
--------5-------------------------5-----|
--7--7-----2--2--2-2-3--3--3-3-5-----5--|
----------------------------------------|


  S S S S S S S S S S S S S S S S S S E  E  E   
-----------------------------------------------|
--------5-----------5-----------5--------------|
--7-7-7---7-7-7-7-7---7-7-7-7-7---7-7-5--5--5--|
-----------------------------------------------|


  S S S S S S S S S S S S S S S S S S E  E  S S  
------------------------------------------------|
--------5-----------5-----------5-----------4-5-|
--7-7-7---7-7-7-7-7---7-7-7-7-7---7-7-5--5------|
------------------------------------------------|


  Verso A                                       
  S       S S S S S E  E  E  E  E  E  E  E  E   
--4-------4-4-5-4---7--4-----5--4--------------|
------------------5-------5--------5--4--5--7--|
-----------------------------------------------|
-----------------------------------------------|


  S S S S S S S S S S S S S S S S S S E  E  E   
-----------------------------------------------|
--------5-----------5-----------5--------------|
--7-7-7---7-7-7-7-7---7-7-7-7-7---7-7-5--5--5--|
-----------------------------------------------|


  S S S S S S S S S S S S S S S S S S E  E  S S  
------------------------------------------------|
--------5-----------5-----------5-----------4-5-|
--7-7-7---7-7-7-7-7---7-7-7-7-7---7-7-5--5------|
------------------------------------------------|


  S S S S S S E  E  E  E  E  E  E  E  E   
--4-4-4-5-4---7--4-----5--4--------------|
------------5-------5--------5--4--5--7--|
-----------------------------------------|
-----------------------------------------|


  S S S S S S S S S S S S S S S S S S E  E  E   
-----------------------------------------------|
--------5-----------5-----------5--------------|
--7-7-7---7-7-7-7-7---7-7-7-7-7---7-7-5--5--5--|
-----------------------------------------------|


  S S S S S S S S S S S S S S S S S S E  E  E   
-----------------------------------------------|
--------5-----------5-----------5--------------|
--7-7-7---7-7-7-7-7---7-7-7-7-7---7-7-5--5--5--|
-----------------------------------------------|


  Coro                                     
  E    E  E  E  E  S S E  E  S S E  E  E   
------------------------------------------|
----------5-------------------------5-----|
--7----7-----2--2--2-2-3--3--3-3-5-----5--|
------------------------------------------|


  S S S S S S S S S S S S S S S S S S E  E  E   
-----------------------------------------------|
--------5-----------5-----------5--------------|
--7-7-7---7-7-7-7-7---7-7-7-7-7---7-7-5--5--5--|
-----------------------------------------------|


  S S S S S S S S S S S S S S S S S S E  E  E   
-----------------------------------------------|
--------5-----------5-----------5--------------|
--7-7-7---7-7-7-7-7---7-7-7-7-7---7-7-5--5--5--|
-----------------------------------------------|


  E  E  E  E  E  S S E  E  S S E  E  E   
----------------------------------------|
--------5-------------------------5-----|
--7--7-----2--2--2-2-3--3--3-3-5-----5--|
----------------------------------------|


  S S S S S S S S S S S S S S S S S S E  E  E   
-----------------------------------------------|
--------5-----------5-----------5--------------|
--7-7-7---7-7-7-7-7---7-7-7-7-7---7-7-5--5--5--|
-----------------------------------------------|


  S S S S S S S S S S S S S S S S S S E  E  E   
-----------------------------------------------|
--------5-----------5-----------5--------------|
--7-7-7---7-7-7-7-7---7-7-7-7-7---7-7-5--5--5--|
-----------------------------------------------|


  E  E  E  E  E  S S E  E  S S E  E  E   
----------------------------------------|
--------5-------------------------5-----|
--7--7-----2--2--2-2-3--3--3-3-5-----5--|
----------------------------------------|


  Riff D                                           
  S.     S. S. S. S. S. S. S. S. S. S. S. E.  E.   
------------9-----------9-----------9-------------|
---------------9-----------9-----------9----------|
--7------7--------7--7--------7--7--------7---5---|
--------------------------------------------------|


  S. S. S. S. S. S. S. S. S. S. S. S. E.  E.   
--------9-----------9-----------9-------------|
-----------9-----------9-----------9----------|
--7--7--------7--7--------7--7--------7---9---|
----------------------------------------------|


  S. S. S. S. S. S. S. S. S. S. S. S. S. S. S. S.  
--------7-----------7-----------5-----------5-----|
-----------7-----------7-----------5-----------5--|
--5--5--------5--5--------3--3--------3--3--------|
--------------------------------------------------|


  S. S. S. S. S. S. S. S. S. S. S. S. E.  E.   
--------9-----------9-----------9-------------|
-----------9-----------9-----------9----------|
--7--7--------7--7--------7--7--------7---5---|
----------------------------------------------|


  Verso B                                           
  S.      S. S. S. S. S. S. S. S. S. S. S. E.  E.   
-------------9-----------9-----------9-------------|
----------------9-----------9-----------9----------|
--7-------7--------7--7--------7--7--------7---5---|
---------------------------------------------------|


  S. S. S. S. S. S. S. S. S. S. S. S. E.  E.   
--------9-----------9-----------9-------------|
-----------9-----------9-----------9----------|
--7--7--------7--7--------7--7--------7---9---|
----------------------------------------------|


  S. S. S. S. S. S. S. S. S. S. S. S. S. S. S. S.  
--------7-----------7-----------5-----------5-----|
-----------7-----------7-----------5-----------5--|
--5--5--------5--5--------3--3--------3--3--------|
--------------------------------------------------|


  S. S. S. S. S. S. S. S. S. S. S. S. E.  E.   
--------9-----------9-----------9-------------|
-----------9-----------9-----------9----------|
--7--7--------7--7--------7--7--------7---5---|
----------------------------------------------|


  S. S. S. S. S. S. S. S. S. S. S. S. E.  E.   
--------9-----------9-----------9-------------|
-----------9-----------9-----------9----------|
--7--7--------7--7--------7--7--------7---5---|
----------------------------------------------|


  S. S. S. S. S. S. S. S. S. S. S. S. E.  E.   
--------9-----------9-----------9-------------|
-----------9-----------9-----------9----------|
--7--7--------7--7--------7--7--------7---5---|
----------------------------------------------|


  S. S. S. S. S. S. S. S. S. S. S. S. E.  E.   
--------9-----------9-----------9-------------|
-----------9-----------9-----------9----------|
--7--7--------7--7--------7--7--------7---9---|
----------------------------------------------|


  S. S. S. S. S. S. S. S. S. S. S. S. S. S. S. S.  
--------7-----------7-----------5-----------5-----|
-----------7-----------7-----------5-----------5--|
--5--5--------5--5--------3--3--------3--3--------|
--------------------------------------------------|


  S. S. S. S. S. S. S. S. S. S. S. S. E.  E.   
--------9-----------9-----------9-------------|
-----------9-----------9-----------9----------|
--7--7--------7--7--------7--7--------7---5---|
----------------------------------------------|


    S. S. S. S. S. S. S. S. S. S. S. S. E.  E.     
|---------9-----------9-----------9--------------||
|*-----------9-----------9-----------9----------*||
|*--7--7--------7--7--------7--7--------7---5---*||
|------------------------------------------------||


  Solo 1 Dave Murray                         
  3                  |-3|    |----3----|     
  Q.                 E  Q    Q    Q    Q     
--------------------------------------------|
--------------------------------------------|
--3------------------3--3----3----2----0----|
--------------------------------------------|


    3      |--3--|  3      |--3--|     3      |-3|    3      |--3--|   
    Q.     E  E  E  Q.     E  E  E     Q.     E  Q    Q.     E  E  E   
------------------------------------|---------------------------------|
------------------------------------|--3------3--3----5------5--7--5--|
--5g7------7--7--7--7------7--7--5--|---------------------------------|
------------------------------------|---------------------------------|


  3      |--3--|  |--3-|  |--3--|     3      |-3|    |----3----|     
  Q.     E  E  E  Q    E  E  E  E     Q.     E  Q    Q    Q    Q     
-----------------------------------|--------------------------------|
------------------5----7--5--------|--------------------------------|
--7------7--7--7-------------7--5--|--3------3--3----3----2----0----|
-----------------------------------|--------------------------------|


    3      |--3--|  3      |-3|       |-3| |-------3------| |3|  |--3--|   
    Q.     E  E  E  Q.     E  Q       E  S S Q    Q    E  S S E  E  E  E   
-----------------------------------|-----5-5--------------7-7-------7--5--|
-----------------------------------|--3------3----3----5------5--5--------|
--5g7------7--7--7--7------7--7----|--------------------------------------|
-----------------------------------|--------------------------------------|


  3      |--3--|  |--3--|  |--3--|     3      |-3|    |----3----|     
  Q.     E  E  E  E  E  E  E  E  E     Q.     E  Q    Q    Q    Q     
------------------------------------|--------------------------------|
------------------7--5-----5--------|--------------------------------|
--7------7--7--7--------7-----7--5--|--3------3--3----3----2----0----|
------------------------------------|--------------------------------|


  3      |--3--|  3      |--3--|     3      |---3--|  |--3-|  |--3--|   
  Q.     E  E  E  Q.     E  E  E     Q.     E  E   E  Q    E  E  E  E   
----------------------------------|------------------------7--5--------|
----------------------------------|--3------3--3S--5--5----------7--5--|
--7------7--7--7--7------7--7--7--|------------------------------------|
----------------------------------|------------------------------------|


  3      |--3--|  3      |--3--|     3      |--3--|  |----3----|     
  Q.     E  E  E  Q.     E  E  E     Q.     E  E  E  Q    Q    Q     
----------------------------------|---------------------------------|
------------------5------7--5-----|---------------------------------|
--7------7--7--7---------------0--|--3------3--3--3--3----2----0----|
----------------------------------|---------------------------------|


    3      |--3--|  3      |-3|       |-3| |-------3------| |3|  |--3--|   
    Q.     E  E  E  Q.     E  Q       E  S S Q    Q    E  S S E  E  E  E   
-----------------------------------|-----5-5--------------7-7-------7--5--|
-----------------------------------|--3------3----3----5------5--5--------|
--5g7------7--7--7--7------7--7----|--------------------------------------|
-----------------------------------|--------------------------------------|


  Break                                                      
  W                   W                   Q    H.            
-------------------|-------------------|--------------------|
-------------------|-------------------|--------------------|
--7----------------|--L----------------|--L-----------------|
-------------------|-------------------|--------------------|


   Interludio 1a                                                                      
   S    S  S  S  S  S  S  S  S  S  S  S  S  S  S  S  S  S  S  S  S  S  S  S  
-------14-16----14-16----14-16----14-16----14-16----14-16----14-16----14-16-|
--14---------14-------14-------14-------14-------14-------14-------14-------|
----------------------------------------------------------------------------|
----------------------------------------------------------------------------|


     S  S  S  S  S  S  S  S  S  S  S  S  S  S  S  S  S  S  S  S  S  S  S  S  
|------14-16----14-16----14-16----14-16----12-14----12-14----12-14----12-14-|
|*--14-------14-------14-------14-------12-------12-------12-------12-------|
|*--------------------------------------------------------------------------|
|---------------------------------------------------------------------------|


   S  S  S  S  S  S  S  S  S  S  S  S  S  S  S  S  S  S  S  S  S  S  S  S    
-----10-12----10-12----10-12----10-12----12-14----12-14----12-14----12-14--||
--10-------10-------10-------10-------12-------12-------12-------12-------*||
--------------------------------------------------------------------------*||
---------------------------------------------------------------------------||


   S  S  S  S  S  S  S  S  S  S  S  S  S  S  S  S  S  S  S  S  S  S  S  S  
-----------12-------14-------12-------------------------14----------------|
--14-14-14----14-14----14-14----14-14-12-12-12-14-12-12----12-12-14-12-12-|
--------------------------------------------------------------------------|
--------------------------------------------------------------------------|


   S  S  S  S  S  S  S  S  S  S  S  S  S  S  S  S  S  S  S  S  S  S  S  S  
--------------------12----------------------------------14----------------|
--10-10-10-12-10-10----10-10-12-10-10-12-12-12-14-12-12----12-12-14-12-12-|
--------------------------------------------------------------------------|
--------------------------------------------------------------------------|


   S  S  S  S  S  S  S  S  S  S  S  S  S  S  S  S  S  S  S  S  S  S  S  S  
-----------12-------14-------12-------------------------14----------------|
--14-14-14----14-14----14-14----14-14-12-12-12-14-12-12----12-12-14-12-12-|
--------------------------------------------------------------------------|
--------------------------------------------------------------------------|


   S  S  S  S  S  S  S  S  S  S  S  S  S  S  S  S  S  S  S  S  S  E.    
--------------------12-------------------------14-14-14-14-12----------|
--10-10-10-12-10-10----10-10-12-10-10-12-12-12----------------14-12\---|
-----------------------------------------------------------------------|
-----------------------------------------------------------------------|


  Interludio 1b                                                
  >                 >           >     >     >           >      
  S             S S S S S S S S S S S S S S S S S S S S S S S  
--------------------------------------------------------------|
--------------------------------------5-5-5-5-5-5-5-5-5-5-5---|
--7-------------7-7-7-7-7-7-7-7-7-7-5-----------------------7-|
--------------------------------------------------------------|


  >     >           >      >                             
  S S S S S S S S S S S S  S  S  S  S  S  S S S S S S S  
--------------------------------------------------------|
--7-7-7-7-7-7-7-7-7-7-7-7-10-10-10-10-10-10-9-9-9-7-7-5-|
--------------------------------------------------------|
--------------------------------------------------------|


  >     >           >     >     >           >      
  S S S S S S S S S S S S S S S S S S S S S S S S  
--------------------------------------------------|
--------------------------5-5-5-5-5-5-5-5-5-5-x---|
--7-7-7-7-7-7-7-7-7-7-x-5-----------------------7-|
--------------------------------------------------|


  >     >           >                                    
  S S S S S S S S S S S S  S  S  S  S  S  S S S S S S S  
--------------------------------------------------------|
--7-7-7-7-7-7-7-7-7-7-7-7-10-10-10-10-10-10-9-9-9-7-7-5-|
--------------------------------------------------------|
--------------------------------------------------------|


  Interludio 1c                                                
  >                 >           >     >     >           >      
  S             S S S S S S S S S S S S S S S S S S S S S S S  
--------------------------------------------------------------|
--------------------------------------5-5-5-5-5-5-5-5-5-5-5-5-|
--7-------------7-7-7-7-7-7-7-7-7-7-7-------------------------|
--------------------------------------------------------------|


  >     >           >                                  
  S S S S S S S S S S S S  S S S  S S S  S S S  S S S  
----------------------------------------10-9-7--------|
--7-7-7-7-7-7-7-7-7-7-7-7-10-9-7-10-9-7--------10-9-7-|
------------------------------------------------------|
------------------------------------------------------|


  >     >           >     >     >           >      
  S S S S S S S S S S S S S S S S S S S S S S S S  
--------------------------------------------------|
--------------------------5-5-5-5-5-5-5-5-5-5-x---|
--7-7-7-7-7-7-7-7-7-7-7-7-----------------------7-|
--------------------------------------------------|


  >     >           >                                  
  S S S S S S S S S S S S  S S S  S S S  S S S  S S S  
-----------------------------------------------10-9-7-|
--7-7-7-7-7-7-7-7-7-7-7-7-10-9-7-10-9-7-10-9-7--------|
------------------------------------------------------|
------------------------------------------------------|


  Riff E                                             
  >          >           >    >   >           >      
  S      S S S S S S S S E  S E.  S S S S S S S S S  
----------------------------------------------------|
------------------------------5---5-5-5-5-5-5-5-5---|
--7------7-7-7-7-7-7-7-7-7--5---------------------7-|
----------------------------------------------------|


  >     >           >      >                             
  S S S S S S S S S S S S  S  S  S  S  S  S S S S S S S  
--------------------------------------------------------|
--7-7-7-7-7-7-7-7-7-7-7-7-10-10-10-10-10-10-9-9-9-7-7-5-|
--------------------------------------------------------|
--------------------------------------------------------|


  >     >               >   >           >      
  S S S S S S E.  S S S E.  S S S S S S S S S  
----------------------------------------------|
------------------------5---5-5-5-5-5-5-5-5---|
--7-7-7-7-7-7-7---7-7-5---------------------7-|
----------------------------------------------|


  >   >           >      >                             
  E.  S S S S S S S S S  S  S  S  S  S  S S S S S S S  
------------------------------------------------------|
--7---7-7-7-7-7-7-7-7-7-10-10-10-10-10-10-9-9-9-7-7-5-|
------------------------------------------------------|
------------------------------------------------------|


  Riff F                                                            
  E      S S E  S S E  S S S S S S    E  S S E  S S E  S S S S S S  
-----------------------------------|-------------------------------|
-----------------------------------|-------------------------------|
--7------7-7-7--7-7-7--7-7-7-5---5-|--7--7-7-7--7-7-7--7-7-7-5---5-|
-------------------------------7---|---------------------------7---|


   E   S  S  E   S  S  E   S  S  S  S  S  S     E   S  S  E  S S E  S S E  E   
--------------------------------------------|---------------------------------|
--------------------------------------------|------------------------------5--|
--10--10-10-10--10-10-10--10-10-10----10-11-|--12--12-12-12--3-0-3--5-3-5-----|
-----------------------------------12-------|---------------------------------|


  E  S S E  S S E  S S S S S S    E  S S E  S S E  S S S S S S  
-------------------------------|-------------------------------|
-------------------------------|-------------------------------|
--7--7-7-7--7-7-7--7-7-7-5---5-|--7--7-7-7--7-7-7--7-7-7-5---5-|
---------------------------7---|---------------------------7---|


   E   S  S  E   S  S  E   S  S  S  S  S  S  
--------------------------------------------|
--------------------------------------------|
--10--10-10-10--10-10-10--10-10-10----10-11-|
-----------------------------------12-------|


                                      Interludio 2                            
   E   S  S  E   S S E  S S E  S S    E            S S E  S S E  S S S S S S  
-----------------------------------|-----------------------------------------|
-------------------------------5---|-----------------------------------------|
--12--12-12-12--12-0-3--3-0-5----5-|--7------------7-7-7--7-7-7--7-7-7-5---5-|
-----------------------------------|-------------------------------------7---|


  E  S S E  S S E  S S S S S S     E   S  S  E   S  S  E   S  S  S  S  S  S  
-------------------------------|--------------------------------------------|
-------------------------------|--------------------------------------------|
--7--7-7-7--7-7-7--7-7-7-5---5-|--10--10-10-10--10-10-10--10-10-10----10-11-|
---------------------------7---|-----------------------------------12-------|


   E   S  S  E   S S E  S S E  S S    E  S S E  S S E  S S S S S S  
-----------------------------------|-------------------------------|
-------------------------------5---|-------------------------------|
--12--12-12-12--12-0-3--5-3-5----5-|--7--7-7-7--7-7-7--7-7-7-5---5-|
-----------------------------------|---------------------------7---|


  E  S S E  S S E  S S S S S S     E   S  S  E   S  S  E   S  S  S  S  S  S  
-------------------------------|--------------------------------------------|
-------------------------------|--------------------------------------------|
--7--7-7-7--7-7-7--7-7-7-5---5-|--10--10-10-10--10-10-10--10-10-10----10-11-|
---------------------------7---|-----------------------------------12-------|


   E   S  S  E   S S E  S S E  S S  
-----------------------------------|
-------------------------------5---|
--12--12-12-12--12-0-3--3-0-5----5-|
-----------------------------------|


  Solo 2 Dave Murray                                                          
  E                  S S E  S S E  S S E  E     E  S S E  S S E  S S S S S S  
---------------------------------------------|-------------------------------|
---------------------------------------------|-------------------------------|
--7------------------7-7-7--7-7-7--7-7-7--5--|--7--7-7-7--7-7-7--7-7-7-5---5-|
---------------------------------------------|---------------------------7---|


   E   S  S  E   S  S  E   S  S  S  S  S  S     E   S  S  E  S S E  S S E  S S  
--------------------------------------------|----------------------------------|
--------------------------------------------|------------------------------5---|
--10--10-10-10--10-10-10--10-10-10----10-11-|--12--12-12-12--3-0-3--5-3-5----5-|
-----------------------------------12-------|----------------------------------|


  E  S S E  S S E  S S S S S S    E  S S E  S S E  S S E  E   
-------------------------------|-----------------------------|
-------------------------------|-----------------------------|
--7--7-7-7--7-7-7--7-7-7-5---5-|--7--7-7-7--7-7-7--7-7-7--5--|
---------------------------7---|-----------------------------|


   E   S  S  E   S  S  E   S  S  S  S  S  S  
--------------------------------------------|
--------------------------------------------|
--10--10-10-10--10-10-10--10-10-10----10-11-|
-----------------------------------12-------|


   Solo 3 Adrian Smith                              
   E                   S  S  E   S S E  S S E  S S  
---------------------------------------------------|
-----------------------------------------------5---|
--12------------------12-12-12--12-0-3--3-0-5----5-|
---------------------------------------------------|


  E  S S E  S S E  S S S S S S    E  S S E  S S E  S S E  E   
-------------------------------|-----------------------------|
-------------------------------|-----------------------------|
--7--7-7-7--7-7-7--7-7-7-5---5-|--7--7-7-7--7-7-7--7-7-7--5--|
---------------------------7---|-----------------------------|


   E   S  S  E   S  S  E   S  S  S  S  S  S  
--------------------------------------------|
--------------------------------------------|
--10--10-10-10--10-10-10--10-10-10----10-11-|
-----------------------------------12-------|


   E   S  S  E   S S E  S S E  S S    E  S S E  S S E  S S S S S S  
-----------------------------------|-------------------------------|
-------------------------------5---|-------------------------------|
--12--12-12-12--12-0-3--5-3-5----5-|--7--7-7-7--7-7-7--7-7-7-5---5-|
-----------------------------------|---------------------------7---|


  E  S S E  S S E  S S E  E      E   S  S  E   S  S  E   S  S  S  S  S  S  
-----------------------------|--------------------------------------------|
-----------------------------|--------------------------------------------|
--7--7-7-7--7-7-7--7-7-7--5--|--10--10-10-10--10-10-10--10-10-10----10-11-|
-----------------------------|-----------------------------------12-------|


                                     Interludio 2                            
   E   S  S  E  S S E  S S E  S S    E            S S E  S S E  S S S S S S  
----------------------------------|-----------------------------------------|
------------------------------5---|-----------------------------------------|
--12--12-12-12--3-0-3--3-0-5----5-|--7------------7-7-7--7-7-7--7-7-7-5---5-|
----------------------------------|-------------------------------------7---|


  E  S S E  S S E  S S S S S S     E   S  S  E   S  S  E   S  S  S  S  S  S  
-------------------------------|--------------------------------------------|
-------------------------------|--------------------------------------------|
--7--7-7-7--7-7-7--7-7-7-5---5-|--10--10-10-10--10-10-10--10-10-10----10-11-|
---------------------------7---|-----------------------------------12-------|


   E   S  S  E   S S E  S S E  S S    E  S S E  S S E  S S S S S S  
-----------------------------------|-------------------------------|
-------------------------------5---|-------------------------------|
--12--12-12-12--12-0-3--5-3-5----5-|--7--7-7-7--7-7-7--7-7-7-5---5-|
-----------------------------------|---------------------------7---|


  E  S S E  S S E  S S S S S S     E   S  S  E   S  S  E   S  S  S  S  S  S  
-------------------------------|--------------------------------------------|
-------------------------------|--------------------------------------------|
--7--7-7-7--7-7-7--7-7-7-5---5-|--10--10-10-10--10-10-10--10-10-10----10-11-|
---------------------------7---|-----------------------------------12-------|


                                    Riff F                            
   E   S  S  E  E  E  S S E  S S    E      S S E  S S E  S S S S S S  
---------------------------------|-----------------------------------|
-----------------------------5---|-----------------------------------|
--12--12-12-12--0--3--0-0-5----5-|--7------7-7-7--7-7-7--7-7-7-5---5-|
---------------------------------|-------------------------------7---|


  E  S S E  S S E  S S S S S S     E   S  S  E   S  S  E   S  S  S  S  S  S  
-------------------------------|--------------------------------------------|
-------------------------------|--------------------------------------------|
--7--7-7-7--7-7-7--7-7-7-5---5-|--10--10-10-10--10-10-10--10-10-10----10-11-|
---------------------------7---|-----------------------------------12-------|


   E   S  S  E  S S E  S S E  S S    E  S S E  S S E  S S S S S S  
----------------------------------|-------------------------------|
------------------------------5---|-------------------------------|
--12--12-12-12--0-0-3--0-0-5----5-|--7--7-7-7--7-7-7--7-7-7-5---5-|
----------------------------------|---------------------------7---|


  E  S S E  S S E  S S S S S S     E   S  S  E   S  S  E   S  S  S  S  S  S  
-------------------------------|--------------------------------------------|
-------------------------------|--------------------------------------------|
--7--7-7-7--7-7-7--7-7-7-5---5-|--10--10-10-10--10-10-10--10-10-10----10-11-|
---------------------------7---|-----------------------------------12-------|


   E   S  S  E   S S E  S S E  S S  
-----------------------------------|
-------------------------------5-5-|
--12--12-12-12--12-0-3--0-0-5------|
-----------------------------------|


  Riff C                                     
  E      E  E  E  E  S S E  E  S S E  E  E   
--------------------------------------------|
------------5-------------------------5-----|
--7------7-----2--2--2-2-3--3--3-3-5-----5--|
--------------------------------------------|


    S S S S S S S S S S S S S S S S S S E  E  E     
|-------------------------------------------------||
|*--------5-----------5-----------5--------------*||
|*--7-7-7---7-7-7-7-7---7-7-7-7-7---7-7-5--5--5--*||
|-------------------------------------------------||


  E  E  E  E  E  S S E  E  S S E  E  E   
----------------------------------------|
--------5-------------------------5-----|
--7--7-----2--2--2-2-3--3--3-3-5-----5--|
----------------------------------------|


  S S S S S S S S S S S S S S S S S S E  E  E   
-----------------------------------------------|
--------5-----------5-----------5--------------|
--7-7-7---7-7-7-7-7---7-7-7-7-7---7-7-5--5--5--|
-----------------------------------------------|


  S S S S S S S S S S S S S S S S S S E  E  S S  
------------------------------------------------|
--------5-----------5-----------5-----------4-5-|
--7-7-7---7-7-7-7-7---7-7-7-7-7---7-7-5--5------|
------------------------------------------------|


  Verso A                                       
  S       S S S S S E  E  E  E  E  E  E  E  E   
--4-------4-4-5-4---7--4-----5--4--------------|
------------------5-------5--------5--4--5--7--|
-----------------------------------------------|
-----------------------------------------------|


  S S S S S S S S S S S S S S S S S S E  E  E   
-----------------------------------------------|
--------5-----------5-----------5--------------|
--7-7-7---7-7-7-7-7---7-7-7-7-7---7-7-5--5--5--|
-----------------------------------------------|


  S S S S S S S S S S S S S S S S S S E  E  S S  
------------------------------------------------|
--------5-----------5-----------5-----------4-5-|
--7-7-7---7-7-7-7-7---7-7-7-7-7---7-7-5--5------|
------------------------------------------------|


  S S S S S S E  E  E  E  E  E  E  E  E   
--4-4-4-5-4---7--4-----5--4--------------|
------------5-------5--------5--4--5--7--|
-----------------------------------------|
-----------------------------------------|


  S S S S S S S S S S S S S S S S S S E  E  E   
-----------------------------------------------|
--------5-----------5-----------5--------------|
--7-7-7---7-7-7-7-7---7-7-7-7-7---7-7-5--5--5--|
-----------------------------------------------|


  S S S S S S S S S S S S S S S S S S E  E  E   
-----------------------------------------------|
--------5-----------5-----------5--------------|
--7-7-7---7-7-7-7-7---7-7-7-7-7---7-7-5--5--5--|
-----------------------------------------------|


  Outro                                     
  E     E  E  E  E  S S E  E  S S E  E  E   
-------------------------------------------|
-----------5-------------------------5-----|
--7-----7-----2--2--2-2-3--3--3-3-5-----5--|
-------------------------------------------|


  S S S S S S S S S S S S S S S S S S E  E  E   
-----------------------------------------------|
--------5-----------5-----------5--------------|
--7-7-7---7-7-7-7-7---7-7-7-7-7---7-7-5--5--5--|
-----------------------------------------------|


  S S S S S S S S S S S S S S S S S S E  E  E   
-----------------------------------------------|
--------5-----------5-----------5--------------|
--7-7-7---7-7-7-7-7---7-7-7-7-7---7-7-5--5--5--|
-----------------------------------------------|


  E  E  E  E  E  S S E  E  S S E  E  E     Q.      E  W                  
----------------------------------------|--9\--------------------------||
--------5-------------------------5-----|--9\--------------------------||
--7--7-----2--2--2-2-3--3--3-3-5-----5--|--7\--------------------------||
----------------------------------------|------------------------------||




Duration Legend
---------------
W - whole
H - half
Q - quarter
E - 8th
S - 16th
T - 32nd
X - 64th
. - note dotted
|-n-|  - n-tuplets


Tablature Legend
----------------
L - tied note
x - dead note
g - grace note
(n) - ghost note
> - accentuded note
NH - natural harmonic
AH - artificial harmonic
TH - tapped harmonic
SH - semi harmonic
PH - pitch harmonic
h - hammer on
p - pull off
b - bend
br - bendRelease
pb - preBend
pbr - preBendRelease
brb - bendReleaseBend
\n/ - tremolo bar dip
\n - tremolo bar dive
-/n - tremolo bar Release up
/n\ - tremolo bar inverted dip
/n - tremolo bar return
-\n - tremolo bar Release down
S - shift slide
s - legato slide
/ -  slide into from below or out of upwards
\ -  slide into from above or out of downwards
~ - vibrato
W - wide vibrato
tr - trill
TP - tremolo picking
T - tapping
S - slap
P - pop
< - fade in
^ - brush up
v - brush down

            
            
Suggest correction
Creating personal tab
Creating personal tab
You can edit any tab online and save it as your Personal.

You can edit, replace or remove any tab part or add personal notes – all changes will be seen only by you.

Personal tabs can be accessed anytime from any device, even offline.
Learn more »
comments
print report bad tab
guest
You may want to rate the tab now too:
select rating
Wanna post a correction for this tab? Suggest correction