Oops, an error
Loading. Please wait.

Phantom Of The Opera tab

version 7
1,474 views 9 this week
no commentswrite comment
1 2 3 4 5
x 12
add to favorites
×
Save as Personal and add changes to this tab that will be seen only by you. Learn more ›
×
You can save this tab as Personal to edit and correct it or add notes. All changes will be seen only by you. Learn more »
launch autoscroll
font size
0
reset
how to read this tab
guitar tuner
backing track
0:00
0:00
edit
Autoscroll
slow
fast
+/-
esc
set tempo
stop
Author
Difficulty
                             Phantom Of The Opera                               


                                  Iron Maiden

Instruments:
- G #1
- G #2
- G #3
- G #4
- G #5
- Voice Melody
- Chorus


Guitar #1:

Dave Murray

            Intro                                                       
     S      S     S S S S S S S E  E  E  E     E  E  E  E  E  E   Q     
E||----||-----------------------------------|--------------------------|
B||----||-----------------------------------|--------------------------|
G||----||*----------4-4-4-5-4---7--4-----5--|--4-----------------------|
D||----||*--4S----5-----------5-------5-----|-----5--4--5--7-----------|
A||----||-----------------------------------|-----------------2~--L----|
E||----||-----------------------------------|--------------------------|


  H        H         3x  S  S S S S S S S E  E  E  E   
---------------------||-------------------------------|
---------------------||-------------------------------|
--------------------*||-------4-4-4-5-4---7--4-----5--|
--------------------*||--4S-5-----------5-------5-----|
--L------------------||-------------------------------|
---------------------||-------------------------------|


  E  E  E  E  E  S S S S S S  
-----------------------------|
-----------------------------|
--4--------------7-7-7-9-9-9-|
-----5--4--5--7--------------|
-----------------------------|
-----------------------------|


   S  S  S  S  S  S  S  S  S  S  S  S  S  S  S  S  
-----------------------------------------------14-|
--------------------12-12-12-13-13-13-15-15-15----|
--11-11-11-12-12-12-------------------------------|
--------------------------------------------------|
--------------------------------------------------|
--------------------------------------------------|


   S  S  S   S  S  S   S  S  S   S  S  S   S  S  S   S  S  S   S  S  S   S  S  S
--14-14-19p-15----19p-15----19p-15----19p-15----19p-15----19p-15----19p-15----19
---------------17--------17--------17--------17--------17--------17--------17---
--------------------------------------------------------------------------------
--------------------------------------------------------------------------------
--------------------------------------------------------------------------------
--------------------------------------------------------------------------------


           Riff A                                               
  E        S      S S  S S S S S S  S S S S S S  S S S E.  E.   
--L\--||-------------------------------------------------------|
------||-------------------------------------------------------|
------||*----------------------------------------------7-------|
------||*----------------------------------------------5---7---|
------||---7------7-7-10-7-7-7-7-7-10-7-7-7-7-7-10-7-7-----5---|
------||-------------------------------------------------------|


  S S S  S S S S S S  S S S S S S  S S S E.  E.     
--------------------------------------------------||
--------------------------------------------------||
-----------------------------------------7-------*||
-----------------------------------------5---7---*||
--7-7-7-10-7-7-7-7-7-10-7-7-7-7-7-10-7-7-----5----||
--------------------------------------------------||


   Riff B                                                                
   S      S S  S S S S S S  S S S  S  S  S  S  S  S  S  S  S  S  S  S    
-----------------------------------------------------------------------||
-----------------------------------------------------------------------||
*---------------------------------------------------------------------*||
*---------------------------------------------------------------------*||
---9------9-9-12-9-9-9-9-9-12-9-9-10-10-10-13-10-10-10-10-10-13-10-10--||
-----------------------------------------------------------------------||


  S S S  S S S S S S  S S S  S  S  S  S  S  S  S  S  S  S  S  S  
----------------------------------------------------------------|
----------------------------------------------------------------|
----------------------------------------------------------------|
----------------------------------------------------------------|
--9-9-9-12-9-9-9-9-9-12-9-9-10-10-10-13-10-10-10-10-10-13-10-10-|
----------------------------------------------------------------|


  Riff C                                      
  E      E  S S E  E  S S E  E  S S E  E  E   
---------------------------------------------|
---------------------------------------------|
--9------9--x-x-4--4--x-x-5--5--x-x-7--7--7--|
--9------9--x-x-4--4--x-x-5--5--x-x-7--7--7--|
--7------7--x-x-2--2--x-x-3--3--x-x-5--5--5--|
---------------------------------------------|


    S S S  S S S S S S  S S S S S S  S S S E  E  E     
|----------------------------------------------------||
|----------------------------------------------------||
|*--------------------------------------------------*||
|*-----------------------------------------7--7--7--*||
|---7-7-7-10-7-7-7-7-7-10-7-7-7-7-7-10-7-7-5--5--5---||
|----------------------------------------------------||


  E  E  S S E  E  S S E  E  S S E  E  E   
-----------------------------------------|
-----------------------------------------|
--9--9--x-x-4--4--x-x-5--5--x-x-7--7--7--|
--9--9--x-x-4--4--x-x-5--5--x-x-7--7--7--|
--7--7--x-x-2--2--x-x-3--3--x-x-5--5--5--|
-----------------------------------------|


  S S S  S S S S S S  S S S S S S  S S S E  E  E   
--------------------------------------------------|
--------------------------------------------------|
--------------------------------------------------|
-----------------------------------------7--7--7--|
--7-7-7-10-7-7-7-7-7-10-7-7-7-7-7-10-7-7-5--5--5--|
--------------------------------------------------|


  S S S  S S S S S S  S S S S S S  S S S E  E  S  S  
----------------------------------------------------|
----------------------------------------------------|
----------------------------------------------------|
-----------------------------------------7--7--4S-5-|
--7-7-7-10-7-7-7-7-7-10-7-7-7-7-7-10-7-7-5--5-------|
----------------------------------------------------|


  Verso A                                       
  S       S S S S S E  E  E  E  E  E  E  E  E   
-----------------------------------------------|
-----------------------------------------------|
--4-------4-4-5-4---7--4-----5--4--------------|
------------------5-------5--------5--4--5--7--|
-----------------------------------------------|
-----------------------------------------------|


  S S S  S S S S S S  S S S S S S  S S S E  E  E   
--------------------------------------------------|
--------------------------------------------------|
--------------------------------------------------|
-----------------------------------------7--7--7--|
--7-7-7-10-7-7-7-7-7-10-7-7-7-7-7-10-7-7-5--5--5--|
--------------------------------------------------|


  S S S  S S S S S S  S S S S S S  S S S E  E  S  S  
----------------------------------------------------|
----------------------------------------------------|
----------------------------------------------------|
-----------------------------------------7--7--4S-5-|
--7-7-7-10-7-7-7-7-7-10-7-7-7-7-7-10-7-7-5--5-------|
----------------------------------------------------|


  S S S S S S E  E  E  E  E  E  E  E  E   
-----------------------------------------|
-----------------------------------------|
--4-4-4-5-4---7--4-----5--4--------------|
------------5-------5--------5--4--5--7--|
-----------------------------------------|
-----------------------------------------|


  S S S  S S S S S S  S S S S S S  S S S E  E  E   
--------------------------------------------------|
--------------------------------------------------|
--------------------------------------------------|
-----------------------------------------7--7--7--|
--7-7-7-10-7-7-7-7-7-10-7-7-7-7-7-10-7-7-5--5--5--|
--------------------------------------------------|


  S S S  S S S S S S  S S S S S S  S S S E  E  E   
--------------------------------------------------|
--------------------------------------------------|
--------------------------------------------------|
-----------------------------------------7--7--7--|
--7-7-7-10-7-7-7-7-7-10-7-7-7-7-7-10-7-7-5--5--5--|
--------------------------------------------------|


  Coro                                      
  E    E  S S E  E  S S E  E  S S E  E  E   
-------------------------------------------|
-------------------------------------------|
--9----9--x-x-4--4--x-x-5--5--x-x-7--7--7--|
--9----9--x-x-4--4--x-x-5--5--x-x-7--7--7--|
--7----7--x-x-2--2--x-x-3--3--x-x-5--5--5--|
-------------------------------------------|


  S S S  S S S S S S  S S S S S S  S S S E  E  E   
--------------------------------------------------|
--------------------------------------------------|
--------------------------------------------------|
-----------------------------------------7--7--7--|
--7-7-7-10-7-7-7-7-7-10-7-7-7-7-7-10-7-7-5--5--5--|
--------------------------------------------------|


  S S S  S S S S S S  S S S S S S  S S S E  E  E   
--------------------------------------------------|
--------------------------------------------------|
--------------------------------------------------|
-----------------------------------------7--7--7--|
--7-7-7-10-7-7-7-7-7-10-7-7-7-7-7-10-7-7-5--5--5--|
--------------------------------------------------|


  E  E  S S E  E  S S E  E  S S E  E  E   
-----------------------------------------|
-----------------------------------------|
--9--9--x-x-4--4--x-x-5--5--x-x-7--7--7--|
--9--9--x-x-4--4--x-x-5--5--x-x-7--7--7--|
--7--7--x-x-2--2--x-x-3--3--x-x-5--5--5--|
-----------------------------------------|


  S S S  S S S S S S  S S S S S S  S S S E  E  E   
--------------------------------------------------|
--------------------------------------------------|
--------------------------------------------------|
-----------------------------------------7--7--7--|
--7-7-7-10-7-7-7-7-7-10-7-7-7-7-7-10-7-7-5--5--5--|
--------------------------------------------------|


  S S S  S S S S S S  S S S S S S  S S S E  E  S  S  
----------------------------------------------------|
----------------------------------------------------|
----------------------------------------------------|
-----------------------------------------7--7--4S-5-|
--7-7-7-10-7-7-7-7-7-10-7-7-7-7-7-10-7-7-5--5-------|
----------------------------------------------------|


  Verso A                                       
  S       S S S S S E  E  E  E  E  E  E  E  E   
-----------------------------------------------|
-----------------------------------------------|
--4-------4-4-5-4---7--4-----5--4--------------|
------------------5-------5--------5--4--5--7--|
-----------------------------------------------|
-----------------------------------------------|


  S S S  S S S S S S  S S S S S S  S S S E  E  E   
--------------------------------------------------|
--------------------------------------------------|
--------------------------------------------------|
-----------------------------------------7--7--7--|
--7-7-7-10-7-7-7-7-7-10-7-7-7-7-7-10-7-7-5--5--5--|
--------------------------------------------------|


  S S S  S S S S S S  S S S S S S  S S S E  E  S  S  
----------------------------------------------------|
----------------------------------------------------|
----------------------------------------------------|
-----------------------------------------7--7--4S-5-|
--7-7-7-10-7-7-7-7-7-10-7-7-7-7-7-10-7-7-5--5-------|
----------------------------------------------------|


  S S S S S S E  E  E  E  E  E  E  E  E   
-----------------------------------------|
-----------------------------------------|
--4-4-4-5-4---7--4-----5--4--------------|
------------5-------5--------5--4--5--7--|
-----------------------------------------|
-----------------------------------------|


  S S S  S S S S S S  S S S S S S  S S S E  E  E   
--------------------------------------------------|
--------------------------------------------------|
--------------------------------------------------|
-----------------------------------------7--7--7--|
--7-7-7-10-7-7-7-7-7-10-7-7-7-7-7-10-7-7-5--5--5--|
--------------------------------------------------|


  S S S  S S S S S S  S S S S S S  S S S E  E  E   
--------------------------------------------------|
--------------------------------------------------|
--------------------------------------------------|
-----------------------------------------7--7--7--|
--7-7-7-10-7-7-7-7-7-10-7-7-7-7-7-10-7-7-5--5--5--|
--------------------------------------------------|


  Coro                                      
  E    E  S S E  E  S S E  E  S S E  E  E   
-------------------------------------------|
-------------------------------------------|
--9----9--x-x-4--4--x-x-5--5--x-x-7--7--7--|
--9----9--x-x-4--4--x-x-5--5--x-x-7--7--7--|
--7----7--x-x-2--2--x-x-3--3--x-x-5--5--5--|
-------------------------------------------|


  S S S  S S S S S S  S S S S S S  S S S E  E  E   
--------------------------------------------------|
--------------------------------------------------|
--------------------------------------------------|
-----------------------------------------7--7--7--|
--7-7-7-10-7-7-7-7-7-10-7-7-7-7-7-10-7-7-5--5--5--|
--------------------------------------------------|


  S S S  S S S S S S  S S S S S S  S S S E  E  E   
--------------------------------------------------|
--------------------------------------------------|
--------------------------------------------------|
-----------------------------------------7--7--7--|
--7-7-7-10-7-7-7-7-7-10-7-7-7-7-7-10-7-7-5--5--5--|
--------------------------------------------------|


  E  E  S S E  E  S S E  E  S S E  E  E   
-----------------------------------------|
-----------------------------------------|
--9--9--x-x-4--4--x-x-5--5--x-x-7--7--7--|
--9--9--x-x-4--4--x-x-5--5--x-x-7--7--7--|
--7--7--x-x-2--2--x-x-3--3--x-x-5--5--5--|
-----------------------------------------|


  S S S  S S S S S S  S S S S S S  S S S E  E  E   
--------------------------------------------------|
--------------------------------------------------|
--------------------------------------------------|
-----------------------------------------7--7--7--|
--7-7-7-10-7-7-7-7-7-10-7-7-7-7-7-10-7-7-5--5--5--|
--------------------------------------------------|


  S S S  S S S S S S  S S S S S S  S S S E  E  E   
--------------------------------------------------|
--------------------------------------------------|
--------------------------------------------------|
-----------------------------------------7--7--7--|
--7-7-7-10-7-7-7-7-7-10-7-7-7-7-7-10-7-7-5--5--5--|
--------------------------------------------------|


  E  E  S S E  E  S S E  E  S S E  E  E   
-----------------------------------------|
-----------------------------------------|
--9--9--x-x-4--4--x-x-5--5--x-x-7--7--7--|
--9--9--x-x-4--4--x-x-5--5--x-x-7--7--7--|
--7--7--x-x-2--2--x-x-3--3--x-x-5--5--5--|
-----------------------------------------|


  Riff D                                           
  PM     PM PM PM PM PM PM PM PM PM PM PM          
  S.     S. S. S. S. S. S. S. S. S. S. S. E.  E.   
--------------------------------------------------|
--------------------------------------------------|
------------9-----------9-----------9-----9---7---|
---------9-----9-----9-----9-----9-----9--9---7---|
--7---------------7-----------7-----------7---5---|
--------------------------------------------------|


  PM PM PM PM PM PM PM PM PM PM PM PM          
  S. S. S. S. S. S. S. S. S. S. S. S. E.  E.   
----------------------------------------------|
----------------------------------------------|
--------9-----------9-----------9-----9---7---|
-----9-----9-----9-----9-----9-----9--9---7---|
--7-----------7-----------7-----------7---5---|
----------------------------------------------|


  PM PM PM PM PM PM PM PM PM PM PM PM PM PM PM PM  
  S. S. S. S. S. S. S. S. S. S. S. S. S. S. S. S.  
--------------------------------------------------|
--------------------------------------------------|
--------7-----------7-----------5-----------5-----|
-----7-----7-----7-----7-----5-----5-----5-----5--|
--5-----------5-----------3-----------3-----------|
--------------------------------------------------|


  PM PM PM PM PM PM PM PM PM PM PM PM          
  S. S. S. S. S. S. S. S. S. S. S. S. E.  E.   
----------------------------------------------|
----------------------------------------------|
--------9-----------9-----------9-----9---7---|
-----9-----9-----9-----9-----9-----9--9---7---|
--7-----------7-----------7-----------7---5---|
----------------------------------------------|


  Verso B                                           
  PM      PM PM PM PM PM PM PM PM PM PM PM          
  S.      S. S. S. S. S. S. S. S. S. S. S. E.  E.   
---------------------------------------------------|
---------------------------------------------------|
-------------9-----------9-----------9-----9---7---|
----------9-----9-----9-----9-----9-----9--9---7---|
--7----------------7-----------7-----------7---5---|
---------------------------------------------------|


  PM PM PM PM PM PM PM PM PM PM PM PM          
  S. S. S. S. S. S. S. S. S. S. S. S. E.  E.   
----------------------------------------------|
----------------------------------------------|
--------9-----------9-----------9-----9---7---|
-----9-----9-----9-----9-----9-----9--9---7---|
--7-----------7-----------7-----------7---5---|
----------------------------------------------|


  PM PM PM PM PM PM PM PM PM PM PM PM PM PM PM PM  
  S. S. S. S. S. S. S. S. S. S. S. S. S. S. S. S.  
--------------------------------------------------|
--------------------------------------------------|
--------7-----------7-----------5-----------5-----|
-----7-----7-----7-----7-----5-----5-----5-----5--|
--5-----------5-----------3-----------3-----------|
--------------------------------------------------|


  PM PM PM PM PM PM PM PM PM PM PM PM          
  S. S. S. S. S. S. S. S. S. S. S. S. E.  E.   
----------------------------------------------|
----------------------------------------------|
--------9-----------9-----------9-----9---7---|
-----9-----9-----9-----9-----9-----9--9---7---|
--7-----------7-----------7-----------7---5---|
----------------------------------------------|


  PM PM PM PM PM PM PM PM PM PM PM PM          
  S. S. S. S. S. S. S. S. S. S. S. S. E.  E.   
----------------------------------------------|
----------------------------------------------|
--------9-----------9-----------9-----9---7---|
-----9-----9-----9-----9-----9-----9--9---7---|
--7-----------7-----------7-----------7---5---|
----------------------------------------------|


  PM PM PM PM PM PM PM PM PM PM PM PM          
  S. S. S. S. S. S. S. S. S. S. S. S. E.  E.   
----------------------------------------------|
----------------------------------------------|
--------9-----------9-----------9-----9---7---|
-----9-----9-----9-----9-----9-----9--9---7---|
--7-----------7-----------7-----------7---5---|
----------------------------------------------|


  PM PM PM PM PM PM PM PM PM PM PM PM          
  S. S. S. S. S. S. S. S. S. S. S. S. E.  E.   
----------------------------------------------|
----------------------------------------------|
--------9-----------9-----------9-----9---7---|
-----9-----9-----9-----9-----9-----9--9---7---|
--7-----------7-----------7-----------7---5---|
----------------------------------------------|


  PM PM PM PM PM PM PM PM PM PM PM PM PM PM PM PM  
  S. S. S. S. S. S. S. S. S. S. S. S. S. S. S. S.  
--------------------------------------------------|
--------------------------------------------------|
--------7-----------7-----------5-----------5-----|
-----7-----7-----7-----7-----5-----5-----5-----5--|
--5-----------5-----------3-----------3-----------|
--------------------------------------------------|


  PM PM PM PM PM PM PM PM PM PM PM PM          
  S. S. S. S. S. S. S. S. S. S. S. S. E.  E.   
----------------------------------------------|
----------------------------------------------|
--------9-----------9-----------9-----9---7---|
-----9-----9-----9-----9-----9-----9--9---7---|
--7-----------7-----------7-----------7---5---|
----------------------------------------------|


    PM PM PM PM PM PM PM PM PM PM PM PM            
    S. S. S. S. S. S. S. S. S. S. S. S. E.  E.     
|------------------------------------------------||
|------------------------------------------------||
|*--------9-----------9-----------9-----9---7---*||
|*-----9-----9-----9-----9-----9-----9--9---7---*||
|---7-----------7-----------7-----------7---5----||
|------------------------------------------------||


   Solo 1 Dave Murray                      
                          |----3---|       
   H                  E   E   E    E   E   
------------------------------------------|
-------------------------17--15b---L---L--|
--14b-----------------L-------------------|
------------------------------------------|
------------------------------------------|
------------------------------------------|


   |-----3-----|     |---3---|             
   Q     Q     Q     S   S   S  E    Q     
------------------------------------------|
---L----15--------------------------------|
--------------14----16p-14h-16-12b---L----|
------------------------------------------|
------------------------------------------|
------------------------------------------|


        |---3---|            |---3---|              
   E.   S   S   S  E.   E.   S   S   S   S   S   S  
--13---12h-13p-12------15---13h-15p-13p-12h-13p-12-|
--18--------------15-------------------------------|
---------------------------------------------------|
---------------------------------------------------|
---------------------------------------------------|
---------------------------------------------------|


              |---3---|            |---3---|         |------3------|     
   H          E   E   E   Q        E   E   E   Q     Q      Q      Q     
-------------------------12b----|--L--13--12~--L----12b----12br----L----|
--15b---------L--12--15---------|---------------------------------------|
--------------------------------|---------------------------------------|
--------------------------------|---------------------------------------|
--------------------------------|---------------------------------------|
--------------------------------|---------------------------------------|


   |--3--|   |-3-|     |-----3-----|     
   Q     E   E   Q     Q     Q     Q     
---L--------12---L----------------12----|
--------15------------12~----L----------|
----------------------------------------|
----------------------------------------|
----------------------------------------|
----------------------------------------|


        |---3---|            |---3---|              
   E.   S   S   S  E.   E.   S   S   S   S   S   S  
--13---12h-13p-12------15---13h-15p-13p-12h-13p-12-|
------------------15-------------------------------|
---------------------------------------------------|
---------------------------------------------------|
---------------------------------------------------|
---------------------------------------------------|


              |---3---|   |---3---|   
   H          E   E   E   E   E   E   
-----------------12--13--15--17---L--|
--15b---------L----------------------|
-------------------------------------|
-------------------------------------|
-------------------------------------|
-------------------------------------|


              |---3---|   |---3---|               
   H          S   S   S   S   S   S   S  S  S  S  
--19~--------17h-19p-17h-19p-17h-19p-17----------|
----------------------------------------22-18-22-|
-------------------------------------------------|
-------------------------------------------------|
-------------------------------------------------|
-------------------------------------------------|


   |---3---|   |---3---|           |---3---|             
   S   S   S   S   S   S  S  S  S  S   S   S  E.   Q     
-------------------------------15-----------------------|
--18h-22p-18h-22p-18h-22-18-17----17p-15h-17-17~---L----|
--------------------------------------------------------|
--------------------------------------------------------|
--------------------------------------------------------|
--------------------------------------------------------|


        |---3---|            |---3---|              
   E.   S   S   S  E.   E.   S   S   S   S   S   S  
--13---12h-13p-12------15---13h-15p-13p-12h-13p-12-|
------------------15-------------------------------|
---------------------------------------------------|
---------------------------------------------------|
---------------------------------------------------|
---------------------------------------------------|


              |---3---|   |----3----|   
   H          E   E   E   E   E     E   
---------------------------------------|
--15b---------L--15--------------------|
---------------------12--14--14br---L--|
---------------------------------------|
---------------------------------------|
---------------------------------------|


          |----3----|          |----3----|   
   Q      E    E    E   Q      E    E    E   
--------------------------------------------|
--------------------------------------------|
--14~----12h--14p--12--10b----10h--12p--10--|
--------------------------------------------|
--------------------------------------------|
--------------------------------------------|


  |---3--|      |---3---|        |---3---|   
  S   S  S  S S E   E   E  Q     E   E   E   
----------------------------------------12--|
------------------------------------12------|
--9h-10p-9-10-9-7h--9p--7--7b----L----------|
--------------------------------------------|
--------------------------------------------|
--------------------------------------------|


                                                       Break              
        |---3---|            |---3---|                                    
   E.   S   S   S  E.   E.   S   S   S   S   S   S     W                  
--13---12h-13p-12------15---13h-15p-13p-12h-13p-12-|---------------------|
------------------15-------------------------------|--15b----------------|
---------------------------------------------------|---------------------|
---------------------------------------------------|---------------------|
---------------------------------------------------|---------------------|
---------------------------------------------------|---------------------|


                                             Interludio 1a     
   W                    Q    H.              W.                
--------------------|---------------------|-------------------|
---L----------------|---L-----------------|-------------------|
--------------------|---------------------|-------------------|
--------------------|---------------------|-------------------|
--------------------|---------------------|-------------------|
--------------------|---------------------|-------------------|


     S   S  S  S   S  S  S   S  S  S   S  S  S   S  S  S   S  S  S   S  S  S   S
|---19p-15----19p-15----19p-15----19p-15----17p-14----17p-14----17p-14----17p-14
|----------17--------17--------17--------17--------15--------15--------15-------
|*------------------------------------------------------------------------------
|*------------------------------------------------------------------------------
|-------------------------------------------------------------------------------
|-------------------------------------------------------------------------------


   S   S  S  S   S  S  S   S  S  S   S  S  S   S  S  S   S  S  S   S  S  S   S  
--15p-12----15p-12----15p-12----15p-12----17p-14----17p-14----17p-14----17p-14--
---------13--------13--------13--------13--------15--------15--------15--------1
--------------------------------------------------------------------------------
--------------------------------------------------------------------------------
--------------------------------------------------------------------------------
--------------------------------------------------------------------------------


   S   S  S  S   S  S  S   S  S  S   S  S  S   S  S  S   S  S  S   S  S  S   S  
--19p-15----19p-15----19p-15----19p-15----17p-14----17p-14----17p-14----17p-14--
---------17--------17--------17--------17--------15--------15--------15--------1
--------------------------------------------------------------------------------
--------------------------------------------------------------------------------
--------------------------------------------------------------------------------
--------------------------------------------------------------------------------


   S   S  S  S   S  S  S   S  S  S   S  S  S   S  S  S   S  S  S   S  S  S   S  
--15p-12----15p-12----15p-12----15p-12----17p-14----17p-14----17p-14----17p-14--
---------13--------13--------13--------13--------15--------15--------15--------1
--------------------------------------------------------------------------------
--------------------------------------------------------------------------------
--------------------------------------------------------------------------------
--------------------------------------------------------------------------------


   S   S  S  S   S  S  S   S  S  S   S  S  S   S  S  S   S  S  S   S  S  S   S  
--19p-15----19p-15----19p-15----19p-15----17p-14----17p-14----17p-14----17p-14--
---------17--------17--------17--------17--------15--------15--------15--------1
--------------------------------------------------------------------------------
--------------------------------------------------------------------------------
--------------------------------------------------------------------------------
--------------------------------------------------------------------------------


   S   S  S  S   S  S  S   S  S  S   S  S  S  S  S  S  S  S  S  S  S  S  S  S  
--15p-12----15p-12----15p-12----15p-12----12-12-12-12-12-12-14-14-14-14-14-14-|
---------13--------13--------13--------13-13-13-13-13-13-13-15-15-15-15-15-15-|
------------------------------------------------------------------------------|
------------------------------------------------------------------------------|
------------------------------------------------------------------------------|
------------------------------------------------------------------------------|


   Interludio 1b                                                                
   S             S  S  S   S  S  S   S  S  S   S  S  S   S  S  S   S  S  S   S  
--19p-----------15----19p-15----19p-15----19p-15----17p-14----17p-14----17p-14--
-------------------17--------17--------17--------17--------15--------15--------1
--------------------------------------------------------------------------------
--------------------------------------------------------------------------------
--------------------------------------------------------------------------------
--------------------------------------------------------------------------------


   S   S  S  S   S  S  S   S  S  S   S  S  S  S  S  S  S  S  S  S  S  S  S  S  
--15p-12----15p-12----15p-12----15p-12----12-12-12-12-12-12-14-14-14-14-14-14-|
---------13--------13--------13--------13-13-13-13-13-13-13-15-15-15-15-15-15-|
------------------------------------------------------------------------------|
------------------------------------------------------------------------------|
------------------------------------------------------------------------------|
------------------------------------------------------------------------------|


   S   S  S  S   S  S  S   S  S  S   S  S  S   S  S  S   S  S  S   S  S  S   S  
--19p-15----19p-15----19p-15----19p-15----17p-14----17p-14----17p-14----17p-14--
---------17--------17--------17--------17--------15--------15--------15--------1
--------------------------------------------------------------------------------
--------------------------------------------------------------------------------
--------------------------------------------------------------------------------
--------------------------------------------------------------------------------


   S   S  S  S   S  S  S   S  S  S   S  S  S  S  S  S  S  S  S  S  S  S  S  S  
--15p-12----15p-12----15p-12----15p-12----12-12-12-12-12-12-14-14-14-14-14-14-|
---------13--------13--------13--------13-13-13-13-13-13-13-15-15-15-15-15-15-|
------------------------------------------------------------------------------|
------------------------------------------------------------------------------|
------------------------------------------------------------------------------|
------------------------------------------------------------------------------|


   Interludio 1c                                                                
   S             S  S  S   S  S  S   S  S  S   S  S  S   S  S  S   S  S  S   S  
--19p-----------15----19p-15----19p-15----19p-15----17p-14----17p-14----17p-14--
-------------------17--------17--------17--------17--------15--------15--------1
--------------------------------------------------------------------------------
--------------------------------------------------------------------------------
--------------------------------------------------------------------------------
--------------------------------------------------------------------------------


   S   S  S  S   S  S  S   S  S  S   S  S  S  S  S  S  S  S  S  S  S  S  S  S  
--15p-12----15p-12----15p-12----15p-12----------------------17-15-13----------|
---------13--------13--------13--------13-17-15-13-17-15-13----------17-15-13-|
------------------------------------------------------------------------------|
------------------------------------------------------------------------------|
------------------------------------------------------------------------------|
------------------------------------------------------------------------------|


   S   S  S  S   S  S  S   S  S  S   S  S  S   S  S  S   S  S  S   S  S  S   S  
--19p-15----19p-15----19p-15----19p-15----17p-14----17p-14----17p-14----17p-14--
---------17--------17--------17--------17--------15--------15--------15--------1
--------------------------------------------------------------------------------
--------------------------------------------------------------------------------
--------------------------------------------------------------------------------
--------------------------------------------------------------------------------


   S   S  S  S   S  S  S   S  S  S   S  S  S  S  S  S  S  S  S  S  S  S  S  S  
--15p-12----15p-12----15p-12----15p-12-------------------------------17-15-13-|
---------13--------13--------13--------13-17-15-13-17-15-13-17-15-13----------|
------------------------------------------------------------------------------|
------------------------------------------------------------------------------|
------------------------------------------------------------------------------|
------------------------------------------------------------------------------|


  Riff E                                     
             PM PM PM               PM PM PM 
  H        S S  S  S   H         S  S  S  S  
--------------------------------------------|
--------------------------------------------|
--------------------------------------------|
--9--------L-9--9--9--12---------L-12-12-12-|
--7--------L-7--7--7--10---------L-10-10-10-|
--------------------------------------------|


                PM PM PM      PM PM PM            
   H         S  S  S  S  E.   S  S  S  E.   E.    
-------------------------------------------------|
-------------------------------------------------|
-------------------------------------------------|
--14---------L-14-14-14-17---17-17-17-16---12\---|
--12---------L-12-12-12-15---15-15-15-14---10\---|
-------------------------------------------------|


             PM PM PM               PM PM PM 
  H        S S  S  S   H         S  S  S  S  
--------------------------------------------|
--------------------------------------------|
--------------------------------------------|
--9--------L-9--9--9--12---------L-12-12-12-|
--7--------L-7--7--7--10---------L-10-10-10-|
--------------------------------------------|


                PM PM PM      PM PM PM            
   H         S  S  S  S  E.   S  S  S  E.   E.    
-------------------------------------------------|
-------------------------------------------------|
-------------------------------------------------|
--14---------L-14-14-14-17---17-17-17-16---12\---|
--12---------L-12-12-12-15---15-15-15-14---10\---|
-------------------------------------------------|


  Riff F                                                                        
         PM PM    PM PM    PM PM               PM PM    PM PM    PM PM          
  E      S  S  E  S  S  E  S  S  S S S S    E  S  S  E  S  S  E  S  S  S S S S  
-----------------------------------------|-------------------------------------|
-----------------------------------------|-------------------------------------|
-----------------------------------------|-------------------------------------|
--9------------9--------9----------------|--9--------9--------9----------------|
--7------7--7--7--7--7--7--7--7--7-5---5-|--7--7--7--7--7--7--7--7--7--7-5---5-|
-------------------------------------7---|---------------------------------7---|


       PM PM     PM PM     PM PM                  PM PM     PM PM           
   E   S  S  E   S  S  E   S  S  S S  S S     E   S  S  E   S  S Q    Q     
------------------------------------------|--------------------------------|
------------------------------------------|--------------------------------|
------------------------------------------|----------------------5----7----|
--12--------12--------12------------------|--14--------14--------5----7----|
--10--10-10-10--10-10-10--10-10-10-8----8-|--12--12-12-12--12-12-3----5----|
-------------------------------------10---|--------------------------------|


     PM PM    PM PM    PM PM               PM PM    PM PM    PM PM          
  E  S  S  E  S  S  E  S  S  S S S S    E  S  S  E  S  S  E  S  S  S S S S  
-------------------------------------|-------------------------------------|
-------------------------------------|-------------------------------------|
-------------------------------------|-------------------------------------|
--9--------9--------9----------------|--9--------9--------9----------------|
--7--7--7--7--7--7--7--7--7--7-5---5-|--7--7--7--7--7--7--7--7--7--7-5---5-|
---------------------------------7---|---------------------------------7---|


       PM PM     PM PM     PM PM                  PM PM     PM PM           
   E   S  S  E   S  S  E   S  S  S S  S S     E   S  S  E   S  S Q    Q     
------------------------------------------|--------------------------------|
------------------------------------------|--------------------------------|
------------------------------------------|----------------------5----7----|
--12--------12--------12------------------|--14--------14--------5----7----|
--10--10-10-10--10-10-10--10-10-10-8----8-|--12--12-12-12--12-12-3----5----|
-------------------------------------10---|--------------------------------|


  Interludio 2                                     
  E             S  S  E.   S  S  S  S  E   S  E    
--------------------------------------------------|
--------------------------------------12---L------|
---------------12-11-12---11-12-11-12--------12~--|
--------------------------------------------------|
--------------------------------------------------|
--------------------------------------------------|


  E   S  S  E.   S  S  S  S  E   S  E    
----------------------------10---L------|
-----12-10-12---10-12-10-12--------12~--|
--L-------------------------------------|
----------------------------------------|
----------------------------------------|
----------------------------------------|


  E   S  S  E.   S  S  S  S  E   S  E    
----------------------------------------|
--L--12-10-12---10-12-10-12-10---L------|
-----------------------------------12~--|
----------------------------------------|
----------------------------------------|
----------------------------------------|


                   |---3---|   |---3---|   
  E   S  S  Q      E   E   E   E   E   E   
------------------------------------------|
------------------12--10------13--12--10--|
--L--12-11-12~------------12--------------|
------------------------------------------|
------------------------------------------|
------------------------------------------|


   E   S  S  E.   S  S  S  S  E   S  E    
-----------------------------------------|
-----------------------------12---L------|
--12--12-11-12---11-12-11-12--------12~--|
-----------------------------------------|
-----------------------------------------|
-----------------------------------------|


  E   S  S  E.   S  S  S  S  E   S  E    
----------------------------10---L------|
-----12-10-12---10-12-10-12--------12~--|
--L-------------------------------------|
----------------------------------------|
----------------------------------------|
----------------------------------------|


  E   S  S  E.   S  S  S  S  E   S  E    
----------------------------------------|
--L--12-10-12---10-12-10-12-10---L------|
-----------------------------------12~--|
----------------------------------------|
----------------------------------------|
----------------------------------------|


                   |---3---|   |---3---|   
  E   S  S  Q      E   E   E   E   E   E   
------------------------------------------|
------------------12--10------13--12--10--|
--L--12-11-12~------------12--------------|
------------------------------------------|
------------------------------------------|
------------------------------------------|


   Solo 2 Dave Murray                     
   Q                  E.   Q.       E.    
-----------------------------------------|
--15b----------------17---15b------15b---|
-----------------------------------------|
-----------------------------------------|
-----------------------------------------|
-----------------------------------------|


               |---3---|  |---3---|            |--3--|       
   S  S  S  S  S   S   S  S   S   S  E    E    S  S  S  E    
------------------------------------------------------------|
---L-15----15-13h-15p-13-12h-13p-12--------------14-15-17~--|
--------12--------------------------14b--14b--16------------|
------------------------------------------------------------|
------------------------------------------------------------|
------------------------------------------------------------|


   E    E    Q       S   S  Q     S   S  
----------------------------------------|
--17b--17b--17br----15h-17-------15h-17-|
---------------------------16-----------|
----------------------------------------|
----------------------------------------|
----------------------------------------|


   |---3---|  |---3---|  |---3---|   |---3--|               
   S   S   S  S   S   S  S   S   S   S  S   S S S Q     E   
-----------------------------------------------------------|
--15h-17p-15-14h-15p-14-12p-10h-12p-10p-8h-10-8---8~-------|
------------------------------------------------9-------9--|
-----------------------------------------------------------|
-----------------------------------------------------------|
-----------------------------------------------------------|


          |--3--|     |--3--|            
  S S S S S  S  S S S S  S  S E.   E.    
----------------------------------------|
--4-5-7-5-4h-5p-4---4-------------------|
------------------5---5p-4h-5-4~---L/---|
----------------------------------------|
----------------------------------------|
----------------------------------------|


               |---3---|        |---3---|  |---3---|  |---3---|      
   S  S  S  S  S   S   S  S  S  S   S   S  S   S   S  S   S   S  E   
--------------------------------------------------------------------|
--16-17-19-17-16h-17p-16----16-12h-13p-12-12h-13p-12-12h-13p-12-12--|
-------------------------17-----------------------------------------|
--------------------------------------------------------------------|
--------------------------------------------------------------------|
--------------------------------------------------------------------|


   3   3     3   3                        
   E   E.    E   E   E   Q      E   E     
------14p---12------14-------------------|
--15------------15------12~--------------|
-------------------------------12--14b~--|
-----------------------------------------|
-----------------------------------------|
-----------------------------------------|


   Solo 3 Adrian Smith                                                        
                                            |---3---|   |---3--|              
   S                   S  S  S  S  S  S  S  S   S   S   S   S  S  S   S  E    
-----------------------------------------------------------------------------|
-----------------------------------------------------------------------------|
---L------------------14-12-16-14-12-16-12-11h-12p-11h-12p-11----11h-12-14b--|
--------------------------------------------------------------12-------------|
-----------------------------------------------------------------------------|
-----------------------------------------------------------------------------|


   H.            E  E     S S S S H.               S  S S  S  H.            
-----------------------|-----------------------|---------------------------|
-----------------------|-----------------------|---------------------------|
---L-------------L-----|-----------------------|---------------------------|
-----------------------|--9-9---9-9------------|--12-12---12-12------------|
-----------------------|--7-7---7-7------------|--10-10---10-10------------|
-----------------------|-----------------------|---------------------------|


   S  S S  S  Q    Q    Q       S S S S H.              S S S S H.            
-----------------------------|-----------------------|-----------------------|
-----------------------------|-----------------------|-----------------------|
-------------------5----7----|-----------------------|-----------------------|
--14-14---14-14----5----7----|--9-9---9-9------------|--9-9---9-9------------|
--12-12---12-12----3----5----|--7-7---7-7------------|--7-7---7-7------------|
-----------------------------|-----------------------|-----------------------|


   S  S S  S  H.               S  S S  S  Q    Q    Q     
---------------------------|-----------------------------|
---------------------------|-----------------------------|
---------------------------|-------------------5----7----|
--12-12---12-12------------|--14-14---14-14----5----7----|
--10-10---10-10------------|--12-12---12-12----3----5----|
---------------------------|-----------------------------|


  Interludio 2                                     
  E             S  S  E.   S  S  S  S  E   S  E    
--------------------------------------------------|
--------------------------------------12---L------|
---------------12-11-12---11-12-11-12--------12~--|
--------------------------------------------------|
--------------------------------------------------|
--------------------------------------------------|


  E   S  S  E.   S  S  S  S  E   S  E    
----------------------------10---L------|
-----12-10-12---10-12-10-12--------12~--|
--L-------------------------------------|
----------------------------------------|
----------------------------------------|
----------------------------------------|


  E   S  S  E.   S  S  S  S  E   S  E    
----------------------------------------|
--L--12-10-12---10-12-10-12-10---L------|
-----------------------------------12~--|
----------------------------------------|
----------------------------------------|
----------------------------------------|


                   |---3---|   |---3---|   
  E   S  S  Q      E   E   E   E   E   E   
------------------------------------------|
------------------12--10------13--12--10--|
--L--12-11-12~------------12--------------|
------------------------------------------|
------------------------------------------|
------------------------------------------|


   E   S  S  E.   S  S  S  S  E   S  E    
-----------------------------------------|
-----------------------------12---L------|
--12--12-11-12---11-12-11-12--------12~--|
-----------------------------------------|
-----------------------------------------|
-----------------------------------------|


  E   S  S  E.   S  S  S  S  E   S  E    
----------------------------10---L------|
-----12-10-12---10-12-10-12--------12~--|
--L-------------------------------------|
----------------------------------------|
----------------------------------------|
----------------------------------------|


  E   S  S  E.   S  S  S  S  E   S  E    
----------------------------------------|
--L--12-10-12---10-12-10-12-10---L------|
-----------------------------------12~--|
----------------------------------------|
----------------------------------------|
----------------------------------------|


                   |---3---|   |---3---|   
  E   S  S  Q      E   E   E   E   E   E   
------------------------------------------|
------------------12--10------13--12--10--|
--L--12-11-12~------------12--------------|
------------------------------------------|
------------------------------------------|
------------------------------------------|


  Riff F                                                                        
         PM PM    PM PM    PM PM               PM PM    PM PM    PM PM          
  E      S  S  E  S  S  E  S  S  S S S S    E  S  S  E  S  S  E  S  S  S S S S  
-----------------------------------------|-------------------------------------|
-----------------------------------------|-------------------------------------|
-----------------------------------------|-------------------------------------|
--9------------9--------9----------------|--9--------9--------9----------------|
--7------7--7--7--7--7--7--7--7--7-5---5-|--7--7--7--7--7--7--7--7--7--7-5---5-|
-------------------------------------7---|---------------------------------7---|


       PM PM     PM PM     PM PM                  PM PM     PM PM           
   E   S  S  E   S  S  E   S  S  S S  S S     E   S  S  E   S  S Q    Q     
------------------------------------------|--------------------------------|
------------------------------------------|--------------------------------|
------------------------------------------|----------------------5----7----|
--12--------12--------12------------------|--14--------14--------5----7----|
--10--10-10-10--10-10-10--10-10-10-8----8-|--12--12-12-12--12-12-3----5----|
-------------------------------------10---|--------------------------------|


     PM PM    PM PM    PM PM               PM PM    PM PM    PM PM          
  E  S  S  E  S  S  E  S  S  S S S S    E  S  S  E  S  S  E  S  S  S S S S  
-------------------------------------|-------------------------------------|
-------------------------------------|-------------------------------------|
-------------------------------------|-------------------------------------|
--9--------9--------9----------------|--9--------9--------9----------------|
--7--7--7--7--7--7--7--7--7--7-5---5-|--7--7--7--7--7--7--7--7--7--7-5---5-|
---------------------------------7---|---------------------------------7---|


       PM PM     PM PM     PM PM                  PM PM     PM PM           
   E   S  S  E   S  S  E   S  S  S S  S S     E   S  S  E   S  S Q    Q     
------------------------------------------|--------------------------------|
------------------------------------------|--------------------------------|
------------------------------------------|----------------------5----7----|
--12--------12--------12------------------|--14--------14--------5----7----|
--10--10-10-10--10-10-10--10-10-10-8----8-|--12--12-12-12--12-12-3----5----|
-------------------------------------10---|--------------------------------|


  Riff C                                      
  E      E  S S E  E  S S E  E  S S E  E  E   
---------------------------------------------|
---------------------------------------------|
--9------9--x-x-4--4--x-x-5--5--x-x-7--7--7--|
--9------9--x-x-4--4--x-x-5--5--x-x-7--7--7--|
--7------7--x-x-2--2--x-x-3--3--x-x-5--5--5--|
---------------------------------------------|


    S S S  S S S S S S  S S S S S S  S S S E  E  E     
|----------------------------------------------------||
|----------------------------------------------------||
|*--------------------------------------------------*||
|*-----------------------------------------7--7--7--*||
|---7-7-7-10-7-7-7-7-7-10-7-7-7-7-7-10-7-7-5--5--5---||
|----------------------------------------------------||


  E  E  S S E  E  S S E  E  S S E  E  E   
-----------------------------------------|
-----------------------------------------|
--9--9--x-x-4--4--x-x-5--5--x-x-7--7--7--|
--9--9--x-x-4--4--x-x-5--5--x-x-7--7--7--|
--7--7--x-x-2--2--x-x-3--3--x-x-5--5--5--|
-----------------------------------------|


  S S S  S S S S S S  S S S S S S  S S S E  E  E   
--------------------------------------------------|
--------------------------------------------------|
--------------------------------------------------|
-----------------------------------------7--7--7--|
--7-7-7-10-7-7-7-7-7-10-7-7-7-7-7-10-7-7-5--5--5--|
--------------------------------------------------|


  S S S  S S S S S S  S S S S S S  S S S E  E  S  S  
----------------------------------------------------|
----------------------------------------------------|
----------------------------------------------------|
-----------------------------------------7--7--4S-5-|
--7-7-7-10-7-7-7-7-7-10-7-7-7-7-7-10-7-7-5--5-------|
----------------------------------------------------|


  Verso A                                       
  S       S S S S S E  E  E  E  E  E  E  E  E   
-----------------------------------------------|
-----------------------------------------------|
--4-------4-4-5-4---7--4-----5--4--------------|
------------------5-------5--------5--4--5--7--|
-----------------------------------------------|
-----------------------------------------------|


  S S S  S S S S S S  S S S S S S  S S S E  E  E   
--------------------------------------------------|
--------------------------------------------------|
--------------------------------------------------|
-----------------------------------------7--7--7--|
--7-7-7-10-7-7-7-7-7-10-7-7-7-7-7-10-7-7-5--5--5--|
--------------------------------------------------|


  S S S  S S S S S S  S S S S S S  S S S E  E  S  S  
----------------------------------------------------|
----------------------------------------------------|
----------------------------------------------------|
-----------------------------------------7--7--4S-5-|
--7-7-7-10-7-7-7-7-7-10-7-7-7-7-7-10-7-7-5--5-------|
----------------------------------------------------|


  S S S S S S E  E  E  E  E  E  E  E  E   
-----------------------------------------|
-----------------------------------------|
--4-4-4-5-4---7--4-----5--4--------------|
------------5-------5--------5--4--5--7--|
-----------------------------------------|
-----------------------------------------|


  S S S  S S S S S S  S S S S S S  S S S E  E  E   
--------------------------------------------------|
--------------------------------------------------|
--------------------------------------------------|
-----------------------------------------7--7--7--|
--7-7-7-10-7-7-7-7-7-10-7-7-7-7-7-10-7-7-5--5--5--|
--------------------------------------------------|


  S S S  S S S S S S  S S S S S S  S S S E  E  E   
--------------------------------------------------|
--------------------------------------------------|
--------------------------------------------------|
-----------------------------------------7--7--7--|
--7-7-7-10-7-7-7-7-7-10-7-7-7-7-7-10-7-7-5--5--5--|
--------------------------------------------------|


  Outro                                      
  E     E  S S E  E  S S E  E  S S E  E  E   
--------------------------------------------|
--------------------------------------------|
--9-----9--x-x-4--4--x-x-5--5--x-x-7--7--7--|
--9-----9--x-x-4--4--x-x-5--5--x-x-7--7--7--|
--7-----7--x-x-2--2--x-x-3--3--x-x-5--5--5--|
--------------------------------------------|


  S S S  S S S S S S  S S S S S S  S S S E  E  E   
--------------------------------------------------|
--------------------------------------------------|
--------------------------------------------------|
-----------------------------------------7--7--7--|
--7-7-7-10-7-7-7-7-7-10-7-7-7-7-7-10-7-7-5--5--5--|
--------------------------------------------------|


  S S S  S S S S S S  S S S S S S  S S S E  E  E   
--------------------------------------------------|
--------------------------------------------------|
--------------------------------------------------|
-----------------------------------------7--7--7--|
--7-7-7-10-7-7-7-7-7-10-7-7-7-7-7-10-7-7-5--5--5--|
--------------------------------------------------|


  E  E  S S E  E  S S E  E  S S E  E  E     Q.      E  W                  
-----------------------------------------|------------------------------||
-----------------------------------------|------------------------------||
--9--9--x-x-4--4--x-x-5--5--x-x-7--7--7--|--9\--------------------------||
--9--9--x-x-4--4--x-x-5--5--x-x-7--7--7--|--9\--------------------------||
--7--7--x-x-2--2--x-x-3--3--x-x-5--5--5--|--7\--------------------------||
-----------------------------------------|------------------------------||




Guitar #2:

Adrian Smith

            Intro                                                       
     S      S     S S S S S S S E  E  E  E     E  E  E  E  E  E   Q     
E||----||-----------------------------------|--------------------------|
B||----||-----------------------------------|--------------------------|
G||----||*----------4-4-4-5-4---7--4-----5--|--4-----------------------|
D||----||*--4S----5-----------5-------5-----|-----5--4--5--7-----------|
A||----||-----------------------------------|-----------------2~--L----|
E||----||-----------------------------------|--------------------------|


  H        H         3x  S  S S S S S S S E  E  E  E   
---------------------||-------------------------------|
---------------------||-------------------------------|
--------------------*||-------4-4-4-5-4---7--4-----5--|
--------------------*||--4S-5-----------5-------5-----|
--L------------------||-------------------------------|
---------------------||-------------------------------|


  E  E  E  E  E  S S S S S S    S S S S S S S S S  S  S  S  S  S  S  S  
-----------------------------|-----------------------------------------|
-----------------------------|--------------8-8-8-10-10-10-12-12-12-15-|
--4--------------4-4-4-5-5-5-|--7-7-7-9-9-9----------------------------|
-----5--4--5--7--------------|-----------------------------------------|
-----------------------------|-----------------------------------------|
-----------------------------|-----------------------------------------|


   S  S  S   S  S  S   S  S  S   S  S  S   S  S  S   S  S  S   S  S  S   S  S  S
--------15p-12----15p-12----15p-12----15p-12----15p-12----15p-12----15p-12----15
--15-15--------12--------12--------12--------12--------12--------12--------12---
--------------------------------------------------------------------------------
--------------------------------------------------------------------------------
--------------------------------------------------------------------------------
--------------------------------------------------------------------------------


           Riff A                                            
  E        S      S S S S S S S S S S S S S S S S S E.  E.   
--L\--||----------------------------------------------------|
------||----------------------------------------------------|
------||*-------------------------------------------7-------|
------||*--2------2-2-5-2-2-2-2-2-5-2-2-2-2-2-5-2-2-5---7---|
------||------------------------------------------------5---|
------||----------------------------------------------------|


  S S S S S S S S S S S S S S S S S S E.  E.     
-----------------------------------------------||
-----------------------------------------------||
--------------------------------------7-------*||
--2-2-2-5-2-2-2-2-2-5-2-2-2-2-2-5-2-2-5---7---*||
------------------------------------------5----||
-----------------------------------------------||


   Riff B                                                  
   S      S S S S S S S S S S S S S S S S S S S S S S S    
---------------------------------------------------------||
---------------------------------------------------------||
*-------------------------------------------------------*||
*--4------4-4-7-4-4-4-4-4-7-4-4-5-5-5-8-5-5-5-5-5-8-5-5-*||
---------------------------------------------------------||
---------------------------------------------------------||


  S S S S S S S S S S S S S S S S S S S S S S S S  
--------------------------------------------------|
--------------------------------------------------|
--------------------------------------------------|
--4-4-4-7-4-4-4-4-4-7-4-4-5-5-5-8-5-5-5-5-5-8-5-5-|
--------------------------------------------------|
--------------------------------------------------|


  Riff C                                      
  E      E  S S E  E  S S E  E  S S E  E  E   
---------------------------------------------|
---------------------------------------------|
---------------------------------------------|
--9------9--x-x-4--4--x-x-5--5--x-x-7--5--7--|
--7------7--x-x-2--2--x-x-3--3--x-x-5--5--5--|
---------------------------------------------|


    S S S S S S S S S S S S S S S S S S E  E  E     
|-------------------------------------------------||
|-------------------------------------------------||
|*-----------------------------------------------*||
|*--2-2-2-5-2-2-2-2-2-5-2-2-2-2-2-5-2-2-7--7--7--*||
|---------------------------------------5--5--5---||
|-------------------------------------------------||


  E  E  S S E  E  S S E  E  S S E  E  E   
-----------------------------------------|
-----------------------------------------|
-----------------------------------------|
--9--9--x-x-4--4--x-x-5--5--x-x-7--5--7--|
--7--7--x-x-2--2--x-x-3--3--x-x-5--5--5--|
-----------------------------------------|


  S S S S S S S S S S S S S S S S S S E  E  E   
-----------------------------------------------|
-----------------------------------------------|
-----------------------------------------------|
--2-2-2-5-2-2-2-2-2-5-2-2-2-2-2-5-2-2-7--7--7--|
--------------------------------------5--5--5--|
-----------------------------------------------|


  S S S S S S S S S S S S S S S S S S E  E  S  S  
-------------------------------------------------|
-------------------------------------------------|
-------------------------------------------------|
--2-2-2-5-2-2-2-2-2-5-2-2-2-2-2-5-2-2-7--7--4S-5-|
--------------------------------------5--5-------|
-------------------------------------------------|


  Verso A                                       
  S       S S S S S E  E  E  E  E  E  E  E  E   
-----------------------------------------------|
-----------------------------------------------|
--4-------4-4-5-4---7--4-----5--4--------------|
------------------5-------5--------5--4--5--7--|
-----------------------------------------------|
-----------------------------------------------|


  S S S S S S S S S S S S S S S S S S E  E  E   
-----------------------------------------------|
-----------------------------------------------|
-----------------------------------------------|
--2-2-2-5-2-2-2-2-2-5-2-2-2-2-2-5-2-2-7--7--7--|
--------------------------------------5--5--5--|
-----------------------------------------------|


  S S S S S S S S S S S S S S S S S S E  E  S  S  
-------------------------------------------------|
-------------------------------------------------|
-------------------------------------------------|
--2-2-2-5-2-2-2-2-2-5-2-2-2-2-2-5-2-2-7--7--4S-5-|
--------------------------------------5--5-------|
-------------------------------------------------|


  S S S S S S E  E  E  E  E  E  E  E  E   
-----------------------------------------|
-----------------------------------------|
--4-4-4-5-4---7--4-----5--4--------------|
------------5-------5--------5--4--5--7--|
-----------------------------------------|
-----------------------------------------|


  S S S S S S S S S S S S S S S S S S E  E  E   
-----------------------------------------------|
-----------------------------------------------|
-----------------------------------------------|
--2-2-2-5-2-2-2-2-2-5-2-2-2-2-2-5-2-2-7--7--7--|
--------------------------------------5--5--5--|
-----------------------------------------------|


  S S S S S S S S S S S S S S S S S S E  E  E   
-----------------------------------------------|
-----------------------------------------------|
-----------------------------------------------|
--2-2-2-5-2-2-2-2-2-5-2-2-2-2-2-5-2-2-7--7--7--|
--------------------------------------5--5--5--|
-----------------------------------------------|


  Coro                                      
  E    E  S S E  E  S S E  E  S S E  E  E   
-------------------------------------------|
-------------------------------------------|
-------------------------------------------|
--9----9--x-x-4--4--x-x-5--5--x-x-7--5--7--|
--7----7--x-x-2--2--x-x-3--3--x-x-5--5--5--|
-------------------------------------------|


  S S S S S S S S S S S S S S S S S S E  E  E   
-----------------------------------------------|
-----------------------------------------------|
-----------------------------------------------|
--2-2-2-5-2-2-2-2-2-5-2-2-2-2-2-5-2-2-7--7--7--|
--------------------------------------5--5--5--|
-----------------------------------------------|


  S S S S S S S S S S S S S S S S S S E  E  E   
-----------------------------------------------|
-----------------------------------------------|
-----------------------------------------------|
--2-2-2-5-2-2-2-2-2-5-2-2-2-2-2-5-2-2-7--7--7--|
--------------------------------------5--5--5--|
-----------------------------------------------|


  E  E  S S E  E  S S E  E  S S E  E  E   
-----------------------------------------|
-----------------------------------------|
-----------------------------------------|
--9--9--x-x-4--4--x-x-5--5--x-x-7--5--7--|
--7--7--x-x-2--2--x-x-3--3--x-x-5--5--5--|
-----------------------------------------|


  S S S S S S S S S S S S S S S S S S E  E  E   
-----------------------------------------------|
-----------------------------------------------|
-----------------------------------------------|
--2-2-2-5-2-2-2-2-2-5-2-2-2-2-2-5-2-2-7--7--7--|
--------------------------------------5--5--5--|
-----------------------------------------------|


  S S S S S S S S S S S S S S S S S S E  E  S  S  
-------------------------------------------------|
-------------------------------------------------|
-------------------------------------------------|
--2-2-2-5-2-2-2-2-2-5-2-2-2-2-2-5-2-2-7--7--4S-5-|
--------------------------------------5--5-------|
-------------------------------------------------|


  Verso A                                       
  S       S S S S S E  E  E  E  E  E  E  E  E   
-----------------------------------------------|
-----------------------------------------------|
--4-------4-4-5-4---7--4-----5--4--------------|
------------------5-------5--------5--4--5--7--|
-----------------------------------------------|
-----------------------------------------------|


  S S S S S S S S S S S S S S S S S S E  E  E   
-----------------------------------------------|
-----------------------------------------------|
-----------------------------------------------|
--2-2-2-5-2-2-2-2-2-5-2-2-2-2-2-5-2-2-7--7--7--|
--------------------------------------5--5--5--|
-----------------------------------------------|


  S S S S S S S S S S S S S S S S S S E  E  S  S  
-------------------------------------------------|
-------------------------------------------------|
-------------------------------------------------|
--2-2-2-5-2-2-2-2-2-5-2-2-2-2-2-5-2-2-7--7--4S-5-|
--------------------------------------5--5-------|
-------------------------------------------------|


  S S S S S S E  E  E  E  E  E  E  E  E   
-----------------------------------------|
-----------------------------------------|
--4-4-4-5-4---7--4-----5--4--------------|
------------5-------5--------5--4--5--7--|
-----------------------------------------|
-----------------------------------------|


  S S S S S S S S S S S S S S S S S S E  E  E   
-----------------------------------------------|
-----------------------------------------------|
-----------------------------------------------|
--2-2-2-5-2-2-2-2-2-5-2-2-2-2-2-5-2-2-7--7--7--|
--------------------------------------5--5--5--|
-----------------------------------------------|


  S S S S S S S S S S S S S S S S S S E  E  E   
-----------------------------------------------|
-----------------------------------------------|
-----------------------------------------------|
--2-2-2-5-2-2-2-2-2-5-2-2-2-2-2-5-2-2-7--7--7--|
--------------------------------------5--5--5--|
-----------------------------------------------|


  Coro                                      
  E    E  S S E  E  S S E  E  S S E  E  E   
-------------------------------------------|
-------------------------------------------|
-------------------------------------------|
--9----9--x-x-4--4--x-x-5--5--x-x-7--5--7--|
--7----7--x-x-2--2--x-x-3--3--x-x-5--5--5--|
-------------------------------------------|


  S S S S S S S S S S S S S S S S S S E  E  E   
-----------------------------------------------|
-----------------------------------------------|
-----------------------------------------------|
--2-2-2-5-2-2-2-2-2-5-2-2-2-2-2-5-2-2-7--7--7--|
--------------------------------------5--5--5--|
-----------------------------------------------|


  S S S S S S S S S S S S S S S S S S E  E  E   
-----------------------------------------------|
-----------------------------------------------|
-----------------------------------------------|
--2-2-2-5-2-2-2-2-2-5-2-2-2-2-2-5-2-2-7--7--7--|
--------------------------------------5--5--5--|
-----------------------------------------------|


  E  E  S S E  E  S S E  E  S S E  E  E   
-----------------------------------------|
-----------------------------------------|
-----------------------------------------|
--9--9--x-x-4--4--x-x-5--5--x-x-7--5--7--|
--7--7--x-x-2--2--x-x-3--3--x-x-5--5--5--|
-----------------------------------------|


  S S S S S S S S S S S S S S S S S S E  E  E   
-----------------------------------------------|
-----------------------------------------------|
-----------------------------------------------|
--2-2-2-5-2-2-2-2-2-5-2-2-2-2-2-5-2-2-7--7--7--|
--------------------------------------5--5--5--|
-----------------------------------------------|


  S S S S S S S S S S S S S S S S S S E  E  E   
-----------------------------------------------|
-----------------------------------------------|
-----------------------------------------------|
--2-2-2-5-2-2-2-2-2-5-2-2-2-2-2-5-2-2-7--7--7--|
--------------------------------------5--5--5--|
-----------------------------------------------|


  E  E  S S E  E  S S E  E  S S E  E  E   
-----------------------------------------|
-----------------------------------------|
-----------------------------------------|
--9--9--x-x-4--4--x-x-5--5--x-x-7--5--7--|
--7--7--x-x-2--2--x-x-3--3--x-x-5--5--5--|
-----------------------------------------|


  Riff D                                           
  PM     PM PM PM PM PM PM PM PM PM PM PM          
  S.     S. S. S. S. S. S. S. S. S. S. S. E.  E.   
--------------------------------------------------|
--------------------------------------------------|
------------9-----------9-----------9-------------|
---------9-----9-----9-----9-----9-----9--9---7---|
--7---------------7-----------7-----------7---5---|
--------------------------------------------------|


  PM PM PM PM PM PM PM PM PM PM PM PM          
  S. S. S. S. S. S. S. S. S. S. S. S. E.  E.   
----------------------------------------------|
----------------------------------------------|
--------9-----------9-----------9-------------|
-----9-----9-----9-----9-----9-----9--9---7---|
--7-----------7-----------7-----------7---5---|
----------------------------------------------|


  PM PM PM PM PM PM PM PM PM PM PM PM PM PM PM PM  
  S. S. S. S. S. S. S. S. S. S. S. S. S. S. S. S.  
--------------------------------------------------|
--------------------------------------------------|
--------7-----------7-----------5-----------5-----|
-----7-----7-----7-----7-----5-----5-----5-----5--|
--5-----------5-----------3-----------3-----------|
--------------------------------------------------|


  PM PM PM PM PM PM PM PM PM PM PM PM          
  S. S. S. S. S. S. S. S. S. S. S. S. E.  E.   
----------------------------------------------|
----------------------------------------------|
--------9-----------9-----------9-------------|
-----9-----9-----9-----9-----9-----9--9---7---|
--7-----------7-----------7-----------7---5---|
----------------------------------------------|


  Verso B                                           
  PM      PM PM PM PM PM PM PM PM PM PM PM          
  S.      S. S. S. S. S. S. S. S. S. S. S. E.  E.   
---------------------------------------------------|
---------------------------------------------------|
-------------9-----------9-----------9-------------|
----------9-----9-----9-----9-----9-----9--9---7---|
--7----------------7-----------7-----------7---5---|
---------------------------------------------------|


  PM PM PM PM PM PM PM PM PM PM PM PM          
  S. S. S. S. S. S. S. S. S. S. S. S. E.  E.   
----------------------------------------------|
----------------------------------------------|
--------9-----------9-----------9-------------|
-----9-----9-----9-----9-----9-----9--9---7---|
--7-----------7-----------7-----------7---5---|
----------------------------------------------|


  PM PM PM PM PM PM PM PM PM PM PM PM PM PM PM PM  
  S. S. S. S. S. S. S. S. S. S. S. S. S. S. S. S.  
--------------------------------------------------|
--------------------------------------------------|
--------7-----------7-----------5-----------5-----|
-----7-----7-----7-----7-----5-----5-----5-----5--|
--5-----------5-----------3-----------3-----------|
--------------------------------------------------|


  PM PM PM PM PM PM PM PM PM PM PM PM          
  S. S. S. S. S. S. S. S. S. S. S. S. E.  E.   
----------------------------------------------|
----------------------------------------------|
--------9-----------9-----------9-------------|
-----9-----9-----9-----9-----9-----9--9---7---|
--7-----------7-----------7-----------7---5---|
----------------------------------------------|


  PM PM PM PM PM PM PM PM PM PM PM PM          
  S. S. S. S. S. S. S. S. S. S. S. S. E.  E.   
----------------------------------------------|
----------------------------------------------|
--------9-----------9-----------9-------------|
-----9-----9-----9-----9-----9-----9--9---7---|
--7-----------7-----------7-----------7---5---|
----------------------------------------------|


  PM PM PM PM PM PM PM PM PM PM PM PM          
  S. S. S. S. S. S. S. S. S. S. S. S. E.  E.   
----------------------------------------------|
----------------------------------------------|
--------9-----------9-----------9-------------|
-----9-----9-----9-----9-----9-----9--9---7---|
--7-----------7-----------7-----------7---5---|
----------------------------------------------|


  PM PM PM PM PM PM PM PM PM PM PM PM          
  S. S. S. S. S. S. S. S. S. S. S. S. E.  E.   
----------------------------------------------|
----------------------------------------------|
--------9-----------9-----------9-------------|
-----9-----9-----9-----9-----9-----9--9---7---|
--7-----------7-----------7-----------7---5---|
----------------------------------------------|


  PM PM PM PM PM PM PM PM PM PM PM PM PM PM PM PM  
  S. S. S. S. S. S. S. S. S. S. S. S. S. S. S. S.  
--------------------------------------------------|
--------------------------------------------------|
--------7-----------7-----------5-----------5-----|
-----7-----7-----7-----7-----5-----5-----5-----5--|
--5-----------5-----------3-----------3-----------|
--------------------------------------------------|


  PM PM PM PM PM PM PM PM PM PM PM PM          
  S. S. S. S. S. S. S. S. S. S. S. S. E.  E.   
----------------------------------------------|
----------------------------------------------|
--------9-----------9-----------9-------------|
-----9-----9-----9-----9-----9-----9--9---7---|
--7-----------7-----------7-----------7---5---|
----------------------------------------------|


                                                     Solo 1 Dave Murray  
    PM PM PM PM PM PM PM PM PM PM PM PM                                  
    S. S. S. S. S. S. S. S. S. S. S. S. E.  E.       W                   
|------------------------------------------------||---------------------|
|------------------------------------------------||---------------------|
|*--------9-----------9-----------9-------------*||---------------------|
|*-----9-----9-----9-----9-----9-----9--9---7---*||--5------------------|
|---7-----------7-----------7-----------7---5----||--3------------------|
|------------------------------------------------||---------------------|


       |--3--|  |----3----|         |---3---|  |-3|    |---3---|  |-3|  |-3|   
  Q    E  E  E  Q    Q    Q         Q    S  S  E  Q    Q    S  S  E  S  S  E   
-------7--------7--------------|----------------------------------------------|
--8-------8----------8----5----|--5g6----5h-6p-5-------8----6h-8p-6--5h-6p-5--|
--9----------9-----------------|------------------7---------------------------|
-------------------------------|----------------------------------------------|
-------------------------------|----------------------------------------------|
-------------------------------|----------------------------------------------|


                              |--3--|  |----3----|     
  H.            Q        Q    E  E  E  Q    Q    Q     
---------------------|--------8--------8--------------|
---------------------|-----------8----------8---------|
--7b-----------------|---9----------9------------9----|
---------------------|--10----------------------------|
---------------------|--------------------------------|
---------------------|--------------------------------|


       |--3--|  |----3----|       |---3---|  |-3|    |---3---|  |-3|  |-3|   
  Q    E  E  E  Q    Q    Q       Q    S  S  E  Q    Q    S  S  E  S  S  E   
-------7--------7--------------|--------------------------------------------|
--8-------8----------8----5----|--6----5h-6p-5-------8----6h-8p-6--5h-6p-5--|
--9----------9-----------------|----------------7---------------------------|
-------------------------------|--------------------------------------------|
-------------------------------|--------------------------------------------|
-------------------------------|--------------------------------------------|


                              |--3--|  |----3----|     
  H.            Q        Q    E  E  E  Q    Q    Q     
---------------------|--------8--------8--------------|
---------------------|-----------8----------8---------|
--7b-----------------|---9----------9------------9----|
---------------------|--10----------------------------|
---------------------|--------------------------------|
---------------------|--------------------------------|


       |--3--|  |----3----|       |---3---|  |-3|    |---3---|  |-3|  |-3|   
  Q    E  E  E  Q    Q    Q       Q    S  S  E  Q    Q    S  S  E  S  S  E   
-------7--------7--------------|--------------------------------------------|
--8-------8----------8----5----|--6----5h-6p-5-------8----6h-8p-6--5h-6p-5--|
--9----------9-----------------|----------------7---------------------------|
-------------------------------|--------------------------------------------|
-------------------------------|--------------------------------------------|
-------------------------------|--------------------------------------------|


                              |--3--|  |----3----|     
  H.            Q        Q    E  E  E  Q    Q    Q     
---------------------|--------8--------8--------------|
---------------------|-----------8----------8---------|
--7b-----------------|---9----------9------------9----|
---------------------|--10----------------------------|
---------------------|--------------------------------|
---------------------|--------------------------------|


       |--3--|  |----3----|       |---3---|  |-3|    |---3---|  |-3|  |-3|   
  Q    E  E  E  Q    Q    Q       Q    S  S  E  Q    Q    S  S  E  S  S  E   
-------7--------7--------------|--------------------------------------------|
--8-------8----------8----5----|--6----5h-6p-5-------8----6h-8p-6--5h-6p-5--|
--9----------9-----------------|----------------7---------------------------|
-------------------------------|--------------------------------------------|
-------------------------------|--------------------------------------------|
-------------------------------|--------------------------------------------|


  Break                                                       
  W                    W                   Q    H.            
--------------------|-------------------|--------------------|
--------------------|-------------------|--------------------|
--7b----------------|--L----------------|--L-----------------|
--------------------|-------------------|--------------------|
--------------------|-------------------|--------------------|
--------------------|-------------------|--------------------|


  Interludio 1a     
  W.                
-------------------|
-------------------|
-------------------|
-------------------|
-------------------|
-------------------|


     S   S  S  S   S  S  S   S  S  S   S  S  S   S  S  S   S  S  S   S  S  S   S
|---15p-12----15p-12----15p-12----15p-12----14p-10----14p-10----14p-10----14p-10
|----------12--------12--------12--------12--------10--------10--------10-------
|*------------------------------------------------------------------------------
|*------------------------------------------------------------------------------
|-------------------------------------------------------------------------------
|-------------------------------------------------------------------------------


   S  S S  S  S S  S  S S  S  S S  S   S  S  S   S  S  S   S  S  S   S  S    
--12p-8---12p-8---12p-8---12p-8---14p-10----14p-10----14p-10----14p-10-----||
--------8-------8-------8-------8--------10--------10--------10--------10--||
--------------------------------------------------------------------------*||
--------------------------------------------------------------------------*||
---------------------------------------------------------------------------||
---------------------------------------------------------------------------||


   S   S  S  S   S  S  S   S  S  S   S  S  S   S  S  S   S  S  S   S  S  S   S  
--15p-12----15p-12----15p-12----15p-12----14p-10----14p-10----14p-10----14p-10--
---------12--------12--------12--------12--------10--------10--------10--------1
--------------------------------------------------------------------------------
--------------------------------------------------------------------------------
--------------------------------------------------------------------------------
--------------------------------------------------------------------------------


   S  S S  S  S S  S  S S  S  S S  S   S  S  S   S  S  S   S  S  S   S  S  
--12p-8---12p-8---12p-8---12p-8---14p-10----14p-10----14p-10----14p-10----|
--------8-------8-------8-------8--------10--------10--------10--------10-|
--------------------------------------------------------------------------|
--------------------------------------------------------------------------|
--------------------------------------------------------------------------|
--------------------------------------------------------------------------|


   S   S  S  S   S  S  S   S  S  S   S  S  S   S  S  S   S  S  S   S  S  S   S  
--15p-12----15p-12----15p-12----15p-12----14p-10----14p-10----14p-10----14p-10--
---------12--------12--------12--------12--------10--------10--------10--------1
--------------------------------------------------------------------------------
--------------------------------------------------------------------------------
--------------------------------------------------------------------------------
--------------------------------------------------------------------------------


   S  S S  S  S S  S  S S  S  S S S S S S S S  S  S  S  S  S  S  
--12p-8---12p-8---12p-8---12p-8---8-8-8-8-8-8-10-10-10-10-10-10-|
--------8-------8-------8-------8-8-8-8-8-8-8-10-10-10-10-10-10-|
----------------------------------------------------------------|
----------------------------------------------------------------|
----------------------------------------------------------------|
----------------------------------------------------------------|


   Interludio 1b                                                                
   S             S  S  S   S  S  S   S  S  S   S  S  S   S  S  S   S  S  S   S  
--15p-----------12----15p-12----15p-12----15p-12----14p-10----14p-10----14p-10--
-------------------12--------12--------12--------12--------10--------10--------1
--------------------------------------------------------------------------------
--------------------------------------------------------------------------------
--------------------------------------------------------------------------------
--------------------------------------------------------------------------------


   S  S S  S  S S  S  S S  S  S S S S S S S S  S  S  S  S  S  S  
--12p-8---12p-8---12p-8---12p-8---8-8-8-8-8-8-10-10-10-10-10-10-|
--------8-------8-------8-------8-8-8-8-8-8-8-10-10-10-10-10-10-|
----------------------------------------------------------------|
----------------------------------------------------------------|
----------------------------------------------------------------|
----------------------------------------------------------------|


   S   S  S  S   S  S  S   S  S  S   S  S  S   S  S  S   S  S  S   S  S  S   S  
--15p-12----15p-12----15p-12----15p-12----14p-10----14p-10----14p-10----14p-10--
---------12--------12--------12--------12--------10--------10--------10--------1
--------------------------------------------------------------------------------
--------------------------------------------------------------------------------
--------------------------------------------------------------------------------
--------------------------------------------------------------------------------


   S  S S  S  S S  S  S S  S  S S S S S S S S  S  S  S  S  S  S  
--12p-8---12p-8---12p-8---12p-8---8-8-8-8-8-8-10-10-10-10-10-10-|
--------8-------8-------8-------8-8-8-8-8-8-8-10-10-10-10-10-10-|
----------------------------------------------------------------|
----------------------------------------------------------------|
----------------------------------------------------------------|
----------------------------------------------------------------|


   Interludio 1c                                                                
   S             S  S  S   S  S  S   S  S  S   S  S  S   S  S  S   S  S  S   S  
--15p-----------12----15p-12----15p-12----15p-12----14p-10----14p-10----14p-10--
-------------------12--------12--------12--------12--------10--------10--------1
--------------------------------------------------------------------------------
--------------------------------------------------------------------------------
--------------------------------------------------------------------------------
--------------------------------------------------------------------------------


   S  S S  S  S S  S  S S  S  S S  S  S  S  S  S  S  S  S  S  S  S  S  
--12p-8---12p-8---12p-8---12p-8---------------------13-12-10----------|
--------8-------8-------8-------8-13-12-10-13-12-10----------13-12-10-|
----------------------------------------------------------------------|
----------------------------------------------------------------------|
----------------------------------------------------------------------|
----------------------------------------------------------------------|


   S   S  S  S   S  S  S   S  S  S   S  S  S   S  S  S   S  S  S   S  S  S   S  
--15p-12----15p-12----15p-12----15p-12----14p-10----14p-10----14p-10----14p-10--
---------12--------12--------12--------12--------10--------10--------10--------1
--------------------------------------------------------------------------------
--------------------------------------------------------------------------------
--------------------------------------------------------------------------------
--------------------------------------------------------------------------------


   S  S S  S  S S  S  S S  S  S S  S  S  S  S  S  S  S  S  S  S  S  S  
--12p-8---12p-8---12p-8---12p-8------------------------------13-12-10-|
--------8-------8-------8-------8-13-12-10-13-12-10-13-12-10----------|
----------------------------------------------------------------------|
----------------------------------------------------------------------|
----------------------------------------------------------------------|
----------------------------------------------------------------------|


  Riff E                              
                     PM PM PM         
  H.            E.   S  S  S  Q.      
-------------------------------------|
-------------------------------------|
-------------------------------------|
--9------------12---12-12-12-12------|
--7------------10---10-10-10-10------|
-------------------------------------|


        PM PM PM                           
   E.   S  S  S  Q.      Q.      E.   E.   
------------------------------------------|
------------------------------------------|
------------------------------------------|
--14---14-14-14-14------17------16---12---|
--12---12-12-12-12------15------14---10---|
------------------------------------------|


                     PM PM PM         
  H.            E.   S  S  S  Q.      
-------------------------------------|
-------------------------------------|
-------------------------------------|
--9------------12---12-12-12-12------|
--7------------10---10-10-10-10------|
-------------------------------------|


        PM PM PM                           
   E.   S  S  S  Q.      Q.      E.   E.   
------------------------------------------|
------------------------------------------|
------------------------------------------|
--14---14-14-14-14------17------16---12---|
--12---12-12-12-12------15------14---10---|
------------------------------------------|


  Riff F                                                                        
         PM PM    PM PM    PM PM               PM PM    PM PM    PM PM          
  E      S  S  E  S  S  E  S  S  S S S S    E  S  S  E  S  S  E  S  S  S S S S  
-----------------------------------------|-------------------------------------|
-----------------------------------------|-------------------------------------|
-----------------------------------------|-------------------------------------|
--9------------9--------9----------------|--9--------9--------9----------------|
--7------7--7--7--7--7--7--7--7--7-5---5-|--7--7--7--7--7--7--7--7--7--7-5---5-|
-------------------------------------7---|---------------------------------7---|


       PM PM     PM PM     PM PM                  PM PM     PM PM           
   E   S  S  E   S  S  E   S  S  S S  S S     E   S  S  E   S  S Q    Q     
------------------------------------------|--------------------------------|
------------------------------------------|--------------------------------|
------------------------------------------|----------------------5----7----|
--12--------12--------12------------------|--14--------14--------5----7----|
--10--10-10-10--10-10-10--10-10-10-8----8-|--12--12-12-12--12-12-3----5----|
-------------------------------------10---|--------------------------------|


     PM PM    PM PM    PM PM               PM PM    PM PM    PM PM          
  E  S  S  E  S  S  E  S  S  S S S S    E  S  S  E  S  S  E  S  S  S S S S  
-------------------------------------|-------------------------------------|
-------------------------------------|-------------------------------------|
-------------------------------------|-------------------------------------|
--9--------9--------9----------------|--9--------9--------9----------------|
--7--7--7--7--7--7--7--7--7--7-5---5-|--7--7--7--7--7--7--7--7--7--7-5---5-|
---------------------------------7---|---------------------------------7---|


       PM PM     PM PM     PM PM                  PM PM     PM PM           
   E   S  S  E   S  S  E   S  S  S S  S S     E   S  S  E   S  S Q    Q     
------------------------------------------|--------------------------------|
------------------------------------------|--------------------------------|
------------------------------------------|----------------------5----7----|
--12--------12--------12------------------|--14--------14--------5----7----|
--10--10-10-10--10-10-10--10-10-10-8----8-|--12--12-12-12--12-12-3----5----|
-------------------------------------10---|--------------------------------|


  Interludio 2                                                          
  E            S S E.  S S S S E  S E      E  S S E.  S S S S E  S E    
----------------------------------------|---------------------7--L-----|
-------------------------------8--L-----|-----8-7-8---7-8-7-8------8~--|
---------------9-7-9---7-9-7-9------9~--|--L---------------------------|
----------------------------------------|------------------------------|
----------------------------------------|------------------------------|
----------------------------------------|------------------------------|


                                              |--3--|   |--3--|   
  E  S S E.  S S S S E  S E      E  S S Q     E  E  E   E  E  E   
------------------------------|----------------------------------|
--L--8-7-8---7-8-7-8-7--L-----|---------------8--7-----10--8--7--|
--------------------------9~--|--L--9-7-9~----------9------------|
------------------------------|----------------------------------|
------------------------------|----------------------------------|
------------------------------|----------------------------------|


  E  S S E.  S S S S E  S E      E  S S E.  S S S S E  S E    
------------------------------|---------------------7--L-----|
---------------------8--L-----|-----8-7-8---7-8-7-8------8~--|
--9--9-7-9---7-9-7-9------9~--|--L---------------------------|
------------------------------|------------------------------|
------------------------------|------------------------------|
------------------------------|------------------------------|


                                              |--3--|   |--3--|   
  E  S S E.  S S S S E  S E      E  S S Q     E  E  E   E  E  E   
------------------------------|----------------------------------|
--L--8-7-8---7-8-7-8-7--L-----|---------------8--7-----10--8--7--|
--------------------------9~--|--L--9-7-9~----------9------------|
------------------------------|----------------------------------|
------------------------------|----------------------------------|
------------------------------|----------------------------------|


  Solo 2 Dave Murray                                             
  S                  S S S H.              S S S S H.            
----------------------------------------|-----------------------|
----------------------------------------|-----------------------|
----------------------------------------|-----------------------|
--9------------------9---9-9------------|--9-9---9-9------------|
--7------------------7---7-7------------|--7-7---7-7------------|
----------------------------------------|-----------------------|


   S  S S  S  H.               S  S S  S  Q    Q    Q     
---------------------------|-----------------------------|
---------------------------|-----------------------------|
---------------------------|-------------------5----7----|
--12-12---12-12------------|--14-14---14-14----5----7----|
--10-10---10-10------------|--12-12---12-12----3----5----|
---------------------------|-----------------------------|


  S S S S H.              S S S S H.               S  S S  S  H.            
-----------------------|-----------------------|---------------------------|
-----------------------|-----------------------|---------------------------|
-----------------------|-----------------------|---------------------------|
--9-9---9-9------------|--9-9---9-9------------|--12-12---12-12------------|
--7-7---7-7------------|--7-7---7-7------------|--10-10---10-10------------|
-----------------------|-----------------------|---------------------------|


   Solo 3 Adrian Smith                                
   S                   S S  S  Q    Q     E     S  S  
-----------------------------------------------12----|
--------------------------------------------------12-|
------------------------------------5----14br--------|
--14------------------14---14-14----5----------------|
--12------------------12---12-12----3----------------|
-----------------------------------------------------|


   E.    E.    Q.       S  S  S  S     E.    E.   Q      E   S   S  S S  
-----------------------12----------|----------------------------12------|
--15b---15b---15b---------12-------|-------------------------------12---|
-----------------------------14-12-|--14b---12----------12--14b---------|
-----------------------------------|-------------14~--------------------|
-----------------------------------|------------------------------------|
-----------------------------------|------------------------------------|


   Q      Q     S  S  E   E   E       H         E   E   E   E   
---------15-----------------------|--------------------15------|
--15b-----L----17-15-----15--15b--|---L---------L--17------17--|
---------------------16-----------|----------------------------|
----------------------------------|----------------------------|
----------------------------------|----------------------------|
----------------------------------|----------------------------|


   Q      E.     S  S  E.    E   E      S  S  S  S  S  S  E   Q      E   E   
----------------------------15------|--19-15----17-15----15-------------15--|
--18b----18br---17-15-17~-------17--|--------17-------17-----17~----17------|
------------------------------------|---------------------------------------|
------------------------------------|---------------------------------------|
------------------------------------|---------------------------------------|
------------------------------------|---------------------------------------|


   S  S  S  S  S  S  S  S  S  S  S  S  S  S  E   
--19-15----17-15----19-15----17-15----19-15-----|
--------17-------17-------17-------17-------17--|
------------------------------------------------|
------------------------------------------------|
------------------------------------------------|
------------------------------------------------|


   |---3--|  |---3--|  |---3--|  |---3--|  |---3--|  |---3--|              
   S   S  S  S   S  S  S   S  S  S   S  S  S   S  S  S   S  S  S   S  E    
--19p-15----17p-15----19p-15----17p-15----19p-15----17p-15----19p-15------|
---------17--------17--------17--------17--------17--------17--------17~--|
--------------------------------------------------------------------------|
--------------------------------------------------------------------------|
--------------------------------------------------------------------------|
--------------------------------------------------------------------------|


   Interludio 2                                                         
   E           S S E.  S S S S E  S E      E  S S E.  S S S S E  S E    
----------------------------------------|---------------------7--L-----|
---L---------------------------8--L-----|-----8-7-8---7-8-7-8------8~--|
---------------9-7-9---7-9-7-9------9~--|--L---------------------------|
----------------------------------------|------------------------------|
----------------------------------------|------------------------------|
----------------------------------------|------------------------------|


                                              |--3--|   |--3--|   
  E  S S E.  S S S S E  S E      E  S S Q     E  E  E   E  E  E   
------------------------------|----------------------------------|
--L--8-7-8---7-8-7-8-7--L-----|---------------8--7-----10--8--7--|
--------------------------9~--|--L--9-7-9~----------9------------|
------------------------------|----------------------------------|
------------------------------|----------------------------------|
------------------------------|----------------------------------|


  E  S S E.  S S S S E  S E      E  S S E.  S S S S E  S E    
------------------------------|---------------------7--L-----|
---------------------8--L-----|-----8-7-8---7-8-7-8------8~--|
--9--9-7-9---7-9-7-9------9~--|--L---------------------------|
------------------------------|------------------------------|
------------------------------|------------------------------|
------------------------------|------------------------------|


                                              |--3--|   |--3--|   
  E  S S E.  S S S S E  S E      E  S S Q     E  E  E   E  E  E   
------------------------------|----------------------------------|
--L--8-7-8---7-8-7-8-7--L-----|---------------8--7-----10--8--7--|
--------------------------9~--|--L--9-7-9~----------9------------|
------------------------------|----------------------------------|
------------------------------|----------------------------------|
------------------------------|----------------------------------|


  Riff F                                                                        
         PM PM    PM PM    PM PM               PM PM    PM PM    PM PM          
  E      S  S  E  S  S  E  S  S  S S S S    E  S  S  E  S  S  E  S  S  S S S S  
-----------------------------------------|-------------------------------------|
-----------------------------------------|-------------------------------------|
-----------------------------------------|-------------------------------------|
--9------------9--------9----------------|--9--------9--------9----------------|
--7------7--7--7--7--7--7--7--7--7-5---5-|--7--7--7--7--7--7--7--7--7--7-5---5-|
-------------------------------------7---|---------------------------------7---|


       PM PM     PM PM     PM PM                  PM PM     PM PM           
   E   S  S  E   S  S  E   S  S  S S  S S     E   S  S  E   S  S Q    Q     
------------------------------------------|--------------------------------|
------------------------------------------|--------------------------------|
------------------------------------------|----------------------5----7----|
--12--------12--------12------------------|--14--------14--------5----7----|
--10--10-10-10--10-10-10--10-10-10-8----8-|--12--12-12-12--12-12-3----5----|
-------------------------------------10---|--------------------------------|


     PM PM    PM PM    PM PM               PM PM    PM PM    PM PM          
  E  S  S  E  S  S  E  S  S  S S S S    E  S  S  E  S  S  E  S  S  S S S S  
-------------------------------------|-------------------------------------|
-------------------------------------|-------------------------------------|
-------------------------------------|-------------------------------------|
--9--------9--------9----------------|--9--------9--------9----------------|
--7--7--7--7--7--7--7--7--7--7-5---5-|--7--7--7--7--7--7--7--7--7--7-5---5-|
---------------------------------7---|---------------------------------7---|


       PM PM     PM PM     PM PM                  PM PM     PM PM           
   E   S  S  E   S  S  E   S  S  S S  S S     E   S  S  E   S  S Q    Q     
------------------------------------------|--------------------------------|
------------------------------------------|--------------------------------|
------------------------------------------|----------------------5----7----|
--12--------12--------12------------------|--14--------14--------5----7----|
--10--10-10-10--10-10-10--10-10-10-8----8-|--12--12-12-12--12-12-3----5----|
-------------------------------------10---|--------------------------------|


  Riff C                                      
  E      E  S S E  E  S S E  E  S S E  E  E   
---------------------------------------------|
---------------------------------------------|
---------------------------------------------|
--9------9--x-x-4--4--x-x-5--5--x-x-7--5--7--|
--7------7--x-x-2--2--x-x-3--3--x-x-5--5--5--|
---------------------------------------------|


    S S S S S S S S S S S S S S S S S S E  E  E     
|-------------------------------------------------||
|-------------------------------------------------||
|*-----------------------------------------------*||
|*--2-2-2-5-2-2-2-2-2-5-2-2-2-2-2-5-2-2-7--7--7--*||
|---------------------------------------5--5--5---||
|-------------------------------------------------||


  E  E  S S E  E  S S E  E  S S E  E  E   
-----------------------------------------|
-----------------------------------------|
-----------------------------------------|
--9--9--x-x-4--4--x-x-5--5--x-x-7--5--7--|
--7--7--x-x-2--2--x-x-3--3--x-x-5--5--5--|
-----------------------------------------|


  S S S S S S S S S S S S S S S S S S E  E  E   
-----------------------------------------------|
-----------------------------------------------|
-----------------------------------------------|
--2-2-2-5-2-2-2-2-2-5-2-2-2-2-2-5-2-2-7--7--7--|
--------------------------------------5--5--5--|
-----------------------------------------------|


  S S S S S S S S S S S S S S S S S S E  E  S  S  
-------------------------------------------------|
-------------------------------------------------|
-------------------------------------------------|
--2-2-2-5-2-2-2-2-2-5-2-2-2-2-2-5-2-2-7--7--4S-5-|
--------------------------------------5--5-------|
-------------------------------------------------|


  Verso A                                       
  S       S S S S S E  E  E  E  E  E  E  E  E   
-----------------------------------------------|
-----------------------------------------------|
--4-------4-4-5-4---7--4-----5--4--------------|
------------------5-------5--------5--4--5--7--|
-----------------------------------------------|
-----------------------------------------------|


  S S S S S S S S S S S S S S S S S S E  E  E   
-----------------------------------------------|
-----------------------------------------------|
-----------------------------------------------|
--2-2-2-5-2-2-2-2-2-5-2-2-2-2-2-5-2-2-7--7--7--|
--------------------------------------5--5--5--|
-----------------------------------------------|


  S S S S S S S S S S S S S S S S S S E  E  S  S  
-------------------------------------------------|
-------------------------------------------------|
-------------------------------------------------|
--2-2-2-5-2-2-2-2-2-5-2-2-2-2-2-5-2-2-7--7--4S-5-|
--------------------------------------5--5-------|
-------------------------------------------------|


  S S S S S S E  E  E  E  E  E  E  E  E   
-----------------------------------------|
-----------------------------------------|
--4-4-4-5-4---7--4-----5--4--------------|
------------5-------5--------5--4--5--7--|
-----------------------------------------|
-----------------------------------------|


  S S S S S S S S S S S S S S S S S S E  E  E   
-----------------------------------------------|
-----------------------------------------------|
-----------------------------------------------|
--2-2-2-5-2-2-2-2-2-5-2-2-2-2-2-5-2-2-7--7--7--|
--------------------------------------5--5--5--|
-----------------------------------------------|


  S S S S S S S S S S S S S S S S S S E  E  E   
-----------------------------------------------|
-----------------------------------------------|
-----------------------------------------------|
--2-2-2-5-2-2-2-2-2-5-2-2-2-2-2-5-2-2-7--7--7--|
--------------------------------------5--5--5--|
-----------------------------------------------|


  Outro                                      
  E     E  S S E  E  S S E  E  S S E  E  E   
--------------------------------------------|
--------------------------------------------|
--------------------------------------------|
--9-----9--x-x-4--4--x-x-5--5--x-x-7--5--7--|
--7-----7--x-x-2--2--x-x-3--3--x-x-5--5--5--|
--------------------------------------------|


  S S S S S S S S S S S S S S S S S S E  E  E   
-----------------------------------------------|
-----------------------------------------------|
-----------------------------------------------|
--2-2-2-5-2-2-2-2-2-5-2-2-2-2-2-5-2-2-7--7--7--|
--------------------------------------5--5--5--|
-----------------------------------------------|


  S S S S S S S S S S S S S S S S S S E  E  E   
-----------------------------------------------|
-----------------------------------------------|
-----------------------------------------------|
--2-2-2-5-2-2-2-2-2-5-2-2-2-2-2-5-2-2-7--7--7--|
--------------------------------------5--5--5--|
-----------------------------------------------|


  E  E  S S E  E  S S E  E  S S E  E  E     Q.      E  W                  
-----------------------------------------|------------------------------||
-----------------------------------------|------------------------------||
-----------------------------------------|------------------------------||
--9--9--x-x-4--4--x-x-5--5--x-x-7--5--7--|--9\--------------------------||
--7--7--x-x-2--2--x-x-3--3--x-x-5--5--5--|--7\--------------------------||
-----------------------------------------|--0---------------------------||




Guitar #3:

Janick Gers

            Intro                                                       
     S      S     S S S S S S S E  E  E  E     E  E  E  E  E  E   Q     
E||----||-----------------------------------|--------------------------|
B||----||-----------------------------------|--------------------------|
G||----||*----------4-4-4-5-4---7--4-----5--|--4-----------------------|
D||----||*--4S----5-----------5-------5-----|-----5--4--5--7-----------|
A||----||-----------------------------------|-----------------2~--L----|
E||----||-----------------------------------|--------------------------|


  H        H         3x  S  S S S S S S S E  E  E  E   
---------------------||-------------------------------|
---------------------||-------------------------------|
--------------------*||-------4-4-4-5-4---7--4-----5--|
--------------------*||--4S-5-----------5-------5-----|
--L------------------||-------------------------------|
---------------------||-------------------------------|


  E  E  E  E  E  S S S S S S    S S S S S S S S S  S  S  S  S  S  S  S  
-----------------------------|-----------------------------------------|
-----------------------------|--------------8-8-8-10-10-10-12-12-12-15-|
--4--------------4-4-4-5-5-5-|--7-7-7-9-9-9----------------------------|
-----5--4--5--7--------------|-----------------------------------------|
-----------------------------|-----------------------------------------|
-----------------------------|-----------------------------------------|


   S  S  S   S  S  S   S  S  S   S  S  S   S  S  S   S  S  S   S  S  S   S  S  S
--------15p-12----15p-12----15p-12----15p-12----15p-12----15p-12----15p-12----15
--15-15--------12--------12--------12--------12--------12--------12--------12---
--------------------------------------------------------------------------------
--------------------------------------------------------------------------------
--------------------------------------------------------------------------------
--------------------------------------------------------------------------------


           Riff A                                               
  E        S      S S  S S S S S S  S S S S S S  S S S E.  E.   
--L\--||-------------------------------------------------------|
------||-------------------------------------------------------|
------||*----------------------------------------------7-------|
------||*----------------------------------------------5---7---|
------||---7------7-7-10-7-7-7-7-7-10-7-7-7-7-7-10-7-7-----5---|
------||-------------------------------------------------------|


  S S S  S S S S S S  S S S S S S  S S S E.  E.     
--------------------------------------------------||
--------------------------------------------------||
-----------------------------------------7-------*||
-----------------------------------------5---7---*||
--7-7-7-10-7-7-7-7-7-10-7-7-7-7-7-10-7-7-----5----||
--------------------------------------------------||


   Riff B                                                                
   S      S S  S S S S S S  S S S  S  S  S  S  S  S  S  S  S  S  S  S    
-----------------------------------------------------------------------||
-----------------------------------------------------------------------||
*---------------------------------------------------------------------*||
*---------------------------------------------------------------------*||
---9------9-9-12-9-9-9-9-9-12-9-9-10-10-10-13-10-10-10-10-10-13-10-10--||
-----------------------------------------------------------------------||


  S S S  S S S S S S  S S S  S  S  S  S  S  S  S  S  S  S  S  S  
----------------------------------------------------------------|
----------------------------------------------------------------|
----------------------------------------------------------------|
----------------------------------------------------------------|
--9-9-9-12-9-9-9-9-9-12-9-9-10-10-10-13-10-10-10-10-10-13-10-10-|
----------------------------------------------------------------|


  Riff C                                      
  E      E  S S E  E  S S E  E  S S E  E  E   
---------------------------------------------|
---------------------------------------------|
--9------9--x-x-4--4--x-x-5--5--x-x-7--7--7--|
--9------9--x-x-4--4--x-x-5--5--x-x-7--7--7--|
--7------7--x-x-2--2--x-x-3--3--x-x-5--5--5--|
---------------------------------------------|


    S S S  S S S S S S  S S S S S S  S S S E  E  E     
|----------------------------------------------------||
|----------------------------------------------------||
|*--------------------------------------------------*||
|*-----------------------------------------7--7--7--*||
|---7-7-7-10-7-7-7-7-7-10-7-7-7-7-7-10-7-7-5--5--5---||
|----------------------------------------------------||


  E  E  S S E  E  S S E  E  S S E  E  E   
-----------------------------------------|
-----------------------------------------|
--9--9--x-x-4--4--x-x-5--5--x-x-7--7--7--|
--9--9--x-x-4--4--x-x-5--5--x-x-7--7--7--|
--7--7--x-x-2--2--x-x-3--3--x-x-5--5--5--|
-----------------------------------------|


  S S S  S S S S S S  S S S S S S  S S S E  E  E   
--------------------------------------------------|
--------------------------------------------------|
--------------------------------------------------|
-----------------------------------------7--7--7--|
--7-7-7-10-7-7-7-7-7-10-7-7-7-7-7-10-7-7-5--5--5--|
--------------------------------------------------|


  S S S  S S S S S S  S S S S S S  S S S E  E  S  S  
----------------------------------------------------|
----------------------------------------------------|
----------------------------------------------------|
-----------------------------------------7--7--4S-5-|
--7-7-7-10-7-7-7-7-7-10-7-7-7-7-7-10-7-7-5--5-------|
----------------------------------------------------|


  Verso A                                       
  S       S S S S S E  E  E  E  E  E  E  E  E   
-----------------------------------------------|
-----------------------------------------------|
--4-------4-4-5-4---7--4-----5--4--------------|
------------------5-------5--------5--4--5--7--|
-----------------------------------------------|
-----------------------------------------------|


  S S S  S S S S S S  S S S S S S  S S S E  E  E   
--------------------------------------------------|
--------------------------------------------------|
--------------------------------------------------|
-----------------------------------------7--7--7--|
--7-7-7-10-7-7-7-7-7-10-7-7-7-7-7-10-7-7-5--5--5--|
--------------------------------------------------|


  S S S  S S S S S S  S S S S S S  S S S E  E  S  S  
----------------------------------------------------|
----------------------------------------------------|
----------------------------------------------------|
-----------------------------------------7--7--4S-5-|
--7-7-7-10-7-7-7-7-7-10-7-7-7-7-7-10-7-7-5--5-------|
----------------------------------------------------|


  S S S S S S E  E  E  E  E  E  E  E  E   
-----------------------------------------|
-----------------------------------------|
--4-4-4-5-4---7--4-----5--4--------------|
------------5-------5--------5--4--5--7--|
-----------------------------------------|
-----------------------------------------|


  S S S  S S S S S S  S S S S S S  S S S E  E  E   
--------------------------------------------------|
--------------------------------------------------|
--------------------------------------------------|
-----------------------------------------7--7--7--|
--7-7-7-10-7-7-7-7-7-10-7-7-7-7-7-10-7-7-5--5--5--|
--------------------------------------------------|


  S S S  S S S S S S  S S S S S S  S S S E  E  E   
--------------------------------------------------|
--------------------------------------------------|
--------------------------------------------------|
-----------------------------------------7--7--7--|
--7-7-7-10-7-7-7-7-7-10-7-7-7-7-7-10-7-7-5--5--5--|
--------------------------------------------------|


  Coro                                      
  E    E  S S E  E  S S E  E  S S E  E  E   
-------------------------------------------|
-------------------------------------------|
--9----9--x-x-4--4--x-x-5--5--x-x-7--7--7--|
--9----9--x-x-4--4--x-x-5--5--x-x-7--7--7--|
--7----7--x-x-2--2--x-x-3--3--x-x-5--5--5--|
-------------------------------------------|


  S S S  S S S S S S  S S S S S S  S S S E  E  E   
--------------------------------------------------|
--------------------------------------------------|
--------------------------------------------------|
-----------------------------------------7--7--7--|
--7-7-7-10-7-7-7-7-7-10-7-7-7-7-7-10-7-7-5--5--5--|
--------------------------------------------------|


  S S S  S S S S S S  S S S S S S  S S S E  E  E   
--------------------------------------------------|
--------------------------------------------------|
--------------------------------------------------|
-----------------------------------------7--7--7--|
--7-7-7-10-7-7-7-7-7-10-7-7-7-7-7-10-7-7-5--5--5--|
--------------------------------------------------|


  E  E  S S E  E  S S E  E  S S E  E  E   
-----------------------------------------|
-----------------------------------------|
--9--9--x-x-4--4--x-x-5--5--x-x-7--7--7--|
--9--9--x-x-4--4--x-x-5--5--x-x-7--7--7--|
--7--7--x-x-2--2--x-x-3--3--x-x-5--5--5--|
-----------------------------------------|


  S S S  S S S S S S  S S S S S S  S S S E  E  E   
--------------------------------------------------|
--------------------------------------------------|
--------------------------------------------------|
-----------------------------------------7--7--7--|
--7-7-7-10-7-7-7-7-7-10-7-7-7-7-7-10-7-7-5--5--5--|
--------------------------------------------------|


  S S S  S S S S S S  S S S S S S  S S S E  E  S  S  
----------------------------------------------------|
----------------------------------------------------|
----------------------------------------------------|
-----------------------------------------7--7--4S-5-|
--7-7-7-10-7-7-7-7-7-10-7-7-7-7-7-10-7-7-5--5-------|
----------------------------------------------------|


  Verso A                                       
  S       S S S S S E  E  E  E  E  E  E  E  E   
-----------------------------------------------|
-----------------------------------------------|
--4-------4-4-5-4---7--4-----5--4--------------|
------------------5-------5--------5--4--5--7--|
-----------------------------------------------|
-----------------------------------------------|


  S S S  S S S S S S  S S S S S S  S S S E  E  E   
--------------------------------------------------|
--------------------------------------------------|
--------------------------------------------------|
-----------------------------------------7--7--7--|
--7-7-7-10-7-7-7-7-7-10-7-7-7-7-7-10-7-7-5--5--5--|
--------------------------------------------------|


  S S S  S S S S S S  S S S S S S  S S S E  E  S  S  
----------------------------------------------------|
----------------------------------------------------|
----------------------------------------------------|
-----------------------------------------7--7--4S-5-|
--7-7-7-10-7-7-7-7-7-10-7-7-7-7-7-10-7-7-5--5-------|
----------------------------------------------------|


  S S S S S S E  E  E  E  E  E  E  E  E   
-----------------------------------------|
-----------------------------------------|
--4-4-4-5-4---7--4-----5--4--------------|
------------5-------5--------5--4--5--7--|
-----------------------------------------|
-----------------------------------------|


  S S S  S S S S S S  S S S S S S  S S S E  E  E   
--------------------------------------------------|
--------------------------------------------------|
--------------------------------------------------|
-----------------------------------------7--7--7--|
--7-7-7-10-7-7-7-7-7-10-7-7-7-7-7-10-7-7-5--5--5--|
--------------------------------------------------|


  S S S  S S S S S S  S S S S S S  S S S E  E  E   
--------------------------------------------------|
--------------------------------------------------|
--------------------------------------------------|
-----------------------------------------7--7--7--|
--7-7-7-10-7-7-7-7-7-10-7-7-7-7-7-10-7-7-5--5--5--|
--------------------------------------------------|


  Coro                                      
  E    E  S S E  E  S S E  E  S S E  E  E   
-------------------------------------------|
-------------------------------------------|
--9----9--x-x-4--4--x-x-5--5--x-x-7--7--7--|
--9----9--x-x-4--4--x-x-5--5--x-x-7--7--7--|
--7----7--x-x-2--2--x-x-3--3--x-x-5--5--5--|
-------------------------------------------|


  S S S  S S S S S S  S S S S S S  S S S E  E  E   
--------------------------------------------------|
--------------------------------------------------|
--------------------------------------------------|
-----------------------------------------7--7--7--|
--7-7-7-10-7-7-7-7-7-10-7-7-7-7-7-10-7-7-5--5--5--|
--------------------------------------------------|


  S S S  S S S S S S  S S S S S S  S S S E  E  E   
--------------------------------------------------|
--------------------------------------------------|
--------------------------------------------------|
-----------------------------------------7--7--7--|
--7-7-7-10-7-7-7-7-7-10-7-7-7-7-7-10-7-7-5--5--5--|
--------------------------------------------------|


  E  E  S S E  E  S S E  E  S S E  E  E   
-----------------------------------------|
-----------------------------------------|
--9--9--x-x-4--4--x-x-5--5--x-x-7--7--7--|
--9--9--x-x-4--4--x-x-5--5--x-x-7--7--7--|
--7--7--x-x-2--2--x-x-3--3--x-x-5--5--5--|
-----------------------------------------|


  S S S  S S S S S S  S S S S S S  S S S E  E  E   
--------------------------------------------------|
--------------------------------------------------|
--------------------------------------------------|
-----------------------------------------7--7--7--|
--7-7-7-10-7-7-7-7-7-10-7-7-7-7-7-10-7-7-5--5--5--|
--------------------------------------------------|


  S S S  S S S S S S  S S S S S S  S S S E  E  E   
--------------------------------------------------|
--------------------------------------------------|
--------------------------------------------------|
-----------------------------------------7--7--7--|
--7-7-7-10-7-7-7-7-7-10-7-7-7-7-7-10-7-7-5--5--5--|
--------------------------------------------------|


  E  E  S S E  E  S S E  E  S S E  E  E   
-----------------------------------------|
-----------------------------------------|
--9--9--x-x-4--4--x-x-5--5--x-x-7--7--7--|
--9--9--x-x-4--4--x-x-5--5--x-x-7--7--7--|
--7--7--x-x-2--2--x-x-3--3--x-x-5--5--5--|
-----------------------------------------|


  Riff D                                           
  PM     PM PM PM PM PM PM PM PM PM PM PM          
  S.     S. S. S. S. S. S. S. S. S. S. S. E.  E.   
--------------------------------------------------|
--------------------------------------------------|
------------9-----------9-----------9-----9---7---|
---------9-----9-----9-----9-----9-----9--9---7---|
--7---------------7-----------7-----------7---5---|
--------------------------------------------------|


  PM PM PM PM PM PM PM PM PM PM PM PM          
  S. S. S. S. S. S. S. S. S. S. S. S. E.  E.   
----------------------------------------------|
----------------------------------------------|
--------9-----------9-----------9-----9---7---|
-----9-----9-----9-----9-----9-----9--9---7---|
--7-----------7-----------7-----------7---5---|
----------------------------------------------|


  PM PM PM PM PM PM PM PM PM PM PM PM PM PM PM PM  
  S. S. S. S. S. S. S. S. S. S. S. S. S. S. S. S.  
--------------------------------------------------|
--------------------------------------------------|
--------7-----------7-----------5-----------5-----|
-----7-----7-----7-----7-----5-----5-----5-----5--|
--5-----------5-----------3-----------3-----------|
--------------------------------------------------|


  PM PM PM PM PM PM PM PM PM PM PM PM          
  S. S. S. S. S. S. S. S. S. S. S. S. E.  E.   
----------------------------------------------|
----------------------------------------------|
--------9-----------9-----------9-----9---7---|
-----9-----9-----9-----9-----9-----9--9---7---|
--7-----------7-----------7-----------7---5---|
----------------------------------------------|


  Verso B                                           
  PM      PM PM PM PM PM PM PM PM PM PM PM          
  S.      S. S. S. S. S. S. S. S. S. S. S. E.  E.   
---------------------------------------------------|
---------------------------------------------------|
-------------9-----------9-----------9-----9---7---|
----------9-----9-----9-----9-----9-----9--9---7---|
--7----------------7-----------7-----------7---5---|
---------------------------------------------------|


  PM PM PM PM PM PM PM PM PM PM PM PM          
  S. S. S. S. S. S. S. S. S. S. S. S. E.  E.   
----------------------------------------------|
----------------------------------------------|
--------9-----------9-----------9-----9---7---|
-----9-----9-----9-----9-----9-----9--9---7---|
--7-----------7-----------7-----------7---5---|
----------------------------------------------|


  PM PM PM PM PM PM PM PM PM PM PM PM PM PM PM PM  
  S. S. S. S. S. S. S. S. S. S. S. S. S. S. S. S.  
--------------------------------------------------|
--------------------------------------------------|
--------7-----------7-----------5-----------5-----|
-----7-----7-----7-----7-----5-----5-----5-----5--|
--5-----------5-----------3-----------3-----------|
--------------------------------------------------|


  PM PM PM PM PM PM PM PM PM PM PM PM          
  S. S. S. S. S. S. S. S. S. S. S. S. E.  E.   
----------------------------------------------|
----------------------------------------------|
--------9-----------9-----------9-----9---7---|
-----9-----9-----9-----9-----9-----9--9---7---|
--7-----------7-----------7-----------7---5---|
----------------------------------------------|


  PM PM PM PM PM PM PM PM PM PM PM PM          
  S. S. S. S. S. S. S. S. S. S. S. S. E.  E.   
----------------------------------------------|
----------------------------------------------|
--------9-----------9-----------9-----9---7---|
-----9-----9-----9-----9-----9-----9--9---7---|
--7-----------7-----------7-----------7---5---|
----------------------------------------------|


  PM PM PM PM PM PM PM PM PM PM PM PM          
  S. S. S. S. S. S. S. S. S. S. S. S. E.  E.   
----------------------------------------------|
----------------------------------------------|
--------9-----------9-----------9-----9---7---|
-----9-----9-----9-----9-----9-----9--9---7---|
--7-----------7-----------7-----------7---5---|
----------------------------------------------|


  PM PM PM PM PM PM PM PM PM PM PM PM          
  S. S. S. S. S. S. S. S. S. S. S. S. E.  E.   
----------------------------------------------|
----------------------------------------------|
--------9-----------9-----------9-----9---7---|
-----9-----9-----9-----9-----9-----9--9---7---|
--7-----------7-----------7-----------7---5---|
----------------------------------------------|


  PM PM PM PM PM PM PM PM PM PM PM PM PM PM PM PM  
  S. S. S. S. S. S. S. S. S. S. S. S. S. S. S. S.  
--------------------------------------------------|
--------------------------------------------------|
--------7-----------7-----------5-----------5-----|
-----7-----7-----7-----7-----5-----5-----5-----5--|
--5-----------5-----------3-----------3-----------|
--------------------------------------------------|


  PM PM PM PM PM PM PM PM PM PM PM PM          
  S. S. S. S. S. S. S. S. S. S. S. S. E.  E.   
----------------------------------------------|
----------------------------------------------|
--------9-----------9-----------9-----9---7---|
-----9-----9-----9-----9-----9-----9--9---7---|
--7-----------7-----------7-----------7---5---|
----------------------------------------------|


    PM PM PM PM PM PM PM PM PM PM PM PM            
    S. S. S. S. S. S. S. S. S. S. S. S. E.  E.     
|------------------------------------------------||
|------------------------------------------------||
|*--------9-----------9-----------9-----9---7---*||
|*-----9-----9-----9-----9-----9-----9--9---7---*||
|---7-----------7-----------7-----------7---5----||
|------------------------------------------------||


   Solo 1 Dave Murray                                                          
   ^                                            ^                              
                     |--3--|  |----3----|            |--3--|  |-----3----|     
   Q                 E  E  E  Q    Q    Q       Q    E  E  E  E  E  Q    Q     
---------------------8--------8--------------|-------7--------7---------------|
------------------------8----------8---------|--8-------8--------8------------|
---9-----------------------9------------9----|--9----------9--------9---------|
--10-----------------------------------------|--9------------------------9----|
--10-----------------------------------------|--------------------------------|
---------------------------------------------|--------------------------------|


   ^               ^                   ^                              
         |-3-|     |-----3-----|            |--3--|  |-----3----|     
   Q     E   Q     Q     Q     Q       Q    E  E  E  E  E  Q    Q     
------------------------------------|-------7--------7---------------|
--10----10--------12----12----------|--8-------8--------8------------|
--10--------10----12----------12----|--9----------9--------9---------|
--10--------------12----------------|--9-----------------------------|
---8--------------10----------------|--------------------------------|
------------------------------------|--------------------------------|


   ^                                       ^                               
        |--3--|   |--------3-------|           |--3--|  |-3|    |--3-|     
   Q    E  E  E   S   S  E   Q     Q       E.  E  E  E  E  Q    Q    E  S  
--------8-------------------------------|------7--------7-----------------|
-----------8----------------------------|--8------8--------8----8---------|
---9----------9---9h-10p-9--------------|--9---------9----------9---------|
--10-------------10---L-----10----------|--9-------------------------9--L-|
--10------------------------------10----|---------------------------------|
----------------------------------------|---------------------------------|


   ^                   ^                       ^                              
   |--3--|   |-3-|     |--3--|   |---3---|          |--3--|  |-----3----|     
   Q     E   E   Q     Q     E   E   E   E     Q    E  E  E  E  E  Q    Q     
--------------------------------------------|-------7--------7---------------|
--10----10------------12----12----------12--|--8-------8--------8--8---------|
--10--------10--------12--------12----------|--9----------9--------9----9----|
--10------------10----12------------12------|--9------------------------9----|
---8------------------10--------------------|--------------------------------|
--------------------------------------------|--------------------------------|


   ^                                 ^                              
        |--3--|  |-----3-----|            |--3--|  |-----3----|     
   Q    E  E  E  E  E  Q     Q       Q    E  E  E  E  E  Q    Q     
--------8--------8----------------|-------7--------7---------------|
-----------8--------8-------------|--8-------8--------8--8---------|
---9----------9--------9----------|--9----------9--------9----9----|
--10------------------------10----|--9------------------------9----|
--10------------------------------|--------------------------------|
----------------------------------|--------------------------------|


   ^     v           ^                   ^                              
   |-----3-----|     |-----3-----|            |--3--|  |-----3----|     
   Q     Q     Q     Q     Q     Q       Q    E  E  E  E  E  Q    Q     
--------------------------------------|-------7------------------------|
--10----------------12----12----------|--8-------8-----8----------8----|
--10----10-----x----12----------12----|--9----------9-----9-------9----|
--10----10-----x----12-----------x----|--9-------------------9----9----|
---8-----------x----10-----------x----|--------------------------------|
--------------------------------------|--------------------------------|


   ^                                  ^                                  
   |--3-|  |--3--|  |----3----|       |--3-|  |--3--|  3    3  3   3     
   Q    E  E  E  E  Q    Q    Q       Q    E  E  E  E  Q    S  E.  Q     
--------8--------8-------8---------|-------7--------7-------------------|
-----------8--------8---------8----|--8-------8--------8----5h-6---5----|
---9----------9--------------------|--9----------9----------5--L---5----|
--10-------------------------------|--9---------------------------------|
--10-------------------------------|------------------------------------|
-----------------------------------|------------------------------------|


                                      Break                                  
   ^             ^                    ^                                      
   3             |-----3-----|                                               
   H.            Q     Q     Q       W                    W                 
----------------------------------|-------------------|--------------------|
--10------------12----12----------|--8----------------|---L----------------|
--10------------12----------12----|--9----------------|---L----------------|
--10------------12----------------|--9----------------|---L----------------|
---8------------10----------------|--7----------------|---L----------------|
----------------------------------|-------------------|--------------------|


                        Interludio 1a     
   Q    H.              W.                
---------------------|-------------------|
---L-----------------|-------------------|
---L-----------------|-------------------|
---L-----------------|-------------------|
---L-----------------|-------------------|
---------------------|-------------------|


     S   S  S  S   S  S  S   S  S  S   S  S  S   S  S  S   S  S  S   S  S  S   S
|---15p-12----15p-12----15p-12----15p-12----14p-10----14p-10----14p-10----14p-10
|----------12--------12--------12--------12--------10--------10--------10-------
|*------------------------------------------------------------------------------
|*------------------------------------------------------------------------------
|-------------------------------------------------------------------------------
|-------------------------------------------------------------------------------


   S  S S  S  S S  S  S S  S  S S  S   S  S  S   S  S  S   S  S  S   S  S    
--12p-8---12p-8---12p-8---12p-8---14p-10----14p-10----14p-10----14p-10-----||
--------8-------8-------8-------8--------10--------10--------10--------10--||
--------------------------------------------------------------------------*||
--------------------------------------------------------------------------*||
---------------------------------------------------------------------------||
---------------------------------------------------------------------------||


   S   S  S  S   S  S  S   S  S  S   S  S  S   S  S  S   S  S  S   S  S  S   S  
--15p-12----15p-12----15p-12----15p-12----14p-10----14p-10----14p-10----14p-10--
---------12--------12--------12--------12--------10--------10--------10--------1
--------------------------------------------------------------------------------
--------------------------------------------------------------------------------
--------------------------------------------------------------------------------
--------------------------------------------------------------------------------


   S  S S  S  S S  S  S S  S  S S  S   S  S  S   S  S  S   S  S  S   S  S  
--12p-8---12p-8---12p-8---12p-8---14p-10----14p-10----14p-10----14p-10----|
--------8-------8-------8-------8--------10--------10--------10--------10-|
--------------------------------------------------------------------------|
--------------------------------------------------------------------------|
--------------------------------------------------------------------------|
--------------------------------------------------------------------------|


   S   S  S  S   S  S  S   S  S  S   S  S  S   S  S  S   S  S  S   S  S  S   S  
--15p-12----15p-12----15p-12----15p-12----14p-10----14p-10----14p-10----14p-10--
---------12--------12--------12--------12--------10--------10--------10--------1
--------------------------------------------------------------------------------
--------------------------------------------------------------------------------
--------------------------------------------------------------------------------
--------------------------------------------------------------------------------


   S  S S  S  S S  S  S S  S  S S S S S S S S  S  S  S  S  S  S  
--12p-8---12p-8---12p-8---12p-8---8-8-8-8-8-8-10-10-10-10-10-10-|
--------8-------8-------8-------8-8-8-8-8-8-8-10-10-10-10-10-10-|
----------------------------------------------------------------|
----------------------------------------------------------------|
----------------------------------------------------------------|
----------------------------------------------------------------|


   Interludio 1b                                                                
   S             S  S  S   S  S  S   S  S  S   S  S  S   S  S  S   S  S  S   S  
--15p-----------12----15p-12----15p-12----15p-12----14p-10----14p-10----14p-10--
-------------------12--------12--------12--------12--------10--------10--------1
--------------------------------------------------------------------------------
--------------------------------------------------------------------------------
--------------------------------------------------------------------------------
--------------------------------------------------------------------------------


   S  S S  S  S S  S  S S  S  S S S S S S S S  S  S  S  S  S  S  
--12p-8---12p-8---12p-8---12p-8---8-8-8-8-8-8-10-10-10-10-10-10-|
--------8-------8-------8-------8-8-8-8-8-8-8-10-10-10-10-10-10-|
----------------------------------------------------------------|
----------------------------------------------------------------|
----------------------------------------------------------------|
----------------------------------------------------------------|


   S   S  S  S   S  S  S   S  S  S   S  S  S   S  S  S   S  S  S   S  S  S   S  
--15p-12----15p-12----15p-12----15p-12----14p-10----14p-10----14p-10----14p-10--
---------12--------12--------12--------12--------10--------10--------10--------1
--------------------------------------------------------------------------------
--------------------------------------------------------------------------------
--------------------------------------------------------------------------------
--------------------------------------------------------------------------------


   S  S S  S  S S  S  S S  S  S S S S S S S S  S  S  S  S  S  S  
--12p-8---12p-8---12p-8---12p-8---8-8-8-8-8-8-10-10-10-10-10-10-|
--------8-------8-------8-------8-8-8-8-8-8-8-10-10-10-10-10-10-|
----------------------------------------------------------------|
----------------------------------------------------------------|
----------------------------------------------------------------|
----------------------------------------------------------------|


   Interludio 1c                                                                
   S             S  S  S   S  S  S   S  S  S   S  S  S   S  S  S   S  S  S   S  
--15p-----------12----15p-12----15p-12----15p-12----14p-10----14p-10----14p-10--
-------------------12--------12--------12--------12--------10--------10--------1
--------------------------------------------------------------------------------
--------------------------------------------------------------------------------
--------------------------------------------------------------------------------
--------------------------------------------------------------------------------


   S  S S  S  S S  S  S S  S  S S  S  S  S  S  S  S  S  S  S  S  S  S  
--12p-8---12p-8---12p-8---12p-8---------------------13-12-10----------|
--------8-------8-------8-------8-13-12-10-13-12-10----------13-12-10-|
----------------------------------------------------------------------|
----------------------------------------------------------------------|
----------------------------------------------------------------------|
----------------------------------------------------------------------|


   S   S  S  S   S  S  S   S  S  S   S  S  S   S  S  S   S  S  S   S  S  S   S  
--15p-12----15p-12----15p-12----15p-12----14p-10----14p-10----14p-10----14p-10--
---------12--------12--------12--------12--------10--------10--------10--------1
--------------------------------------------------------------------------------
--------------------------------------------------------------------------------
--------------------------------------------------------------------------------
--------------------------------------------------------------------------------


   S  S S  S  S S  S  S S  S  S S  S  S  S  S  S  S  S  S  S  S  S  S  
--12p-8---12p-8---12p-8---12p-8------------------------------13-12-10-|
--------8-------8-------8-------8-13-12-10-13-12-10-13-12-10----------|
----------------------------------------------------------------------|
----------------------------------------------------------------------|
----------------------------------------------------------------------|
----------------------------------------------------------------------|


  Riff E                                                         
  H.            H.               H.            Q.      E.   E.   
-----------------------------|----------------------------------|
-----------------------------|----------------------------------|
-----------------------------|----------------------------------|
--9------------12------------|--14------------17------16---12---|
--7------------10------------|--12------------15------14---10---|
-----------------------------|----------------------------------|


  H.            H.               H.            Q.      E.   E.   
-----------------------------|----------------------------------|
-----------------------------|----------------------------------|
-----------------------------|----------------------------------|
--9------------12------------|--14------------17------16---12---|
--7------------10------------|--12------------15------14---10---|
-----------------------------|----------------------------------|


  Riff F                                                      
  \1                                                          
  W                   H        H            W                 
-------------------|--------------------|--------------------|
-------------------|--------------------|--------------------|
--9----------------|--L-----------------|--------------------|
--9----------------|--L-----------------|--12----------------|
--7----------------|--L-----------------|--10----------------|
-------------------|--------------------|--------------------|


   H        Q    Q       W                   W                 
----------------------|-------------------|-------------------|
----------------------|-------------------|-------------------|
----------------------|-------------------|-------------------|
--14--------5----7----|--9----------------|--L----------------|
--12--------3----5----|--7----------------|--L----------------|
----------------------|-------------------|-------------------|


   W                    H        Q    Q     
--------------------|----------------------|
--------------------|----------------------|
--------------------|----------------------|
--12----------------|--14--------5----7----|
--10----------------|--12--------3----5----|
--------------------|----------------------|


  Interludio 2                                                          
  E            S S E.  S S S S E  S E      E  S S E.  S S S S E  S E    
----------------------------------------|---------------------7--L-----|
-------------------------------8--L-----|-----8-7-8---7-8-7-8------8~--|
---------------9-7-9---7-9-7-9------9~--|--L---------------------------|
----------------------------------------|------------------------------|
----------------------------------------|------------------------------|
----------------------------------------|------------------------------|


                                              |--3--|   |--3--|   
  E  S S E.  S S S S E  S E      E  S S Q     E  E  E   E  E  E   
------------------------------|----------------------------------|
--L--8-7-8---7-8-7-8-7--L-----|---------------8--7-----10--8--7--|
--------------------------9~--|--L--9-7-9~----------9------------|
------------------------------|----------------------------------|
------------------------------|----------------------------------|
------------------------------|----------------------------------|


  E  S S E.  S S S S E  S E      E  S S E.  S S S S E  S E    
------------------------------|---------------------7--L-----|
---------------------8--L-----|-----8-7-8---7-8-7-8------8~--|
--9--9-7-9---7-9-7-9------9~--|--L---------------------------|
------------------------------|------------------------------|
------------------------------|------------------------------|
------------------------------|------------------------------|


                                              |--3--|   |--3--|   
  E  S S E.  S S S S E  S E      E  S S Q     E  E  E   E  E  E   
------------------------------|----------------------------------|
--L--8-7-8---7-8-7-8-7--L-----|---------------8--7-----10--8--7--|
--------------------------9~--|--L--9-7-9~----------9------------|
------------------------------|----------------------------------|
------------------------------|----------------------------------|
------------------------------|----------------------------------|


  Solo 2 Dave Murray                                             
  S                  S S S H.              S S S S H.            
----------------------------------------|-----------------------|
----------------------------------------|-----------------------|
----------------------------------------|-----------------------|
--9------------------9---9-9------------|--9-9---9-9------------|
--7------------------7---7-7------------|--7-7---7-7------------|
----------------------------------------|-----------------------|


   S  S S  S  H.               S  S S  S  Q    Q    Q     
---------------------------|-----------------------------|
---------------------------|-----------------------------|
---------------------------|-------------------5----7----|
--12-12---12-12------------|--14-14---14-14----5----7----|
--10-10---10-10------------|--12-12---12-12----3----5----|
---------------------------|-----------------------------|


  S S S S H.              S S S S H.               S  S S  S  H.            
-----------------------|-----------------------|---------------------------|
-----------------------|-----------------------|---------------------------|
-----------------------|-----------------------|---------------------------|
--9-9---9-9------------|--9-9---9-9------------|--12-12---12-12------------|
--7-7---7-7------------|--7-7---7-7------------|--10-10---10-10------------|
-----------------------|-----------------------|---------------------------|


   Solo 3 Adrian Smith                                                 
   S                   S S  S  Q    Q    Q       S S S S H.            
----------------------------------------------|-----------------------|
----------------------------------------------|-----------------------|
------------------------------------5----7----|-----------------------|
--14------------------14---14-14----5----7----|--9-9---9-9------------|
--12------------------12---12-12----3----5----|--7-7---7-7------------|
----------------------------------------------|-----------------------|


  S S S S H.               S  S S  S  H.            
-----------------------|---------------------------|
-----------------------|---------------------------|
-----------------------|---------------------------|
--9-9---9-9------------|--12-12---12-12------------|
--7-7---7-7------------|--10-10---10-10------------|
-----------------------|---------------------------|


   S  S S  S  Q    Q    Q       S S S S H.              S S S S H.            
-----------------------------|-----------------------|-----------------------|
-----------------------------|-----------------------|-----------------------|
-------------------5----7----|-----------------------|-----------------------|
--14-14---14-14----5----7----|--9-9---9-9------------|--9-9---9-9------------|
--12-12---12-12----3----5----|--7-7---7-7------------|--7-7---7-7------------|
-----------------------------|-----------------------|-----------------------|


   S  S S  S  H.               S  S S  S  Q    Q    Q     
---------------------------|-----------------------------|
---------------------------|-----------------------------|
---------------------------|-------------------5----7----|
--12-12---12-12------------|--14-14---14-14----5----7----|
--10-10---10-10------------|--12-12---12-12----3----5----|
---------------------------|-----------------------------|


  Interludio 2                                                          
  E            S S E.  S S S S E  S E      E  S S E.  S S S S E  S E    
----------------------------------------|---------------------7--L-----|
-------------------------------8--L-----|-----8-7-8---7-8-7-8------8~--|
---------------9-7-9---7-9-7-9------9~--|--L---------------------------|
----------------------------------------|------------------------------|
----------------------------------------|------------------------------|
----------------------------------------|------------------------------|


                                              |--3--|   |--3--|   
  E  S S E.  S S S S E  S E      E  S S Q     E  E  E   E  E  E   
------------------------------|----------------------------------|
--L--8-7-8---7-8-7-8-7--L-----|---------------8--7-----10--8--7--|
--------------------------9~--|--L--9-7-9~----------9------------|
------------------------------|----------------------------------|
------------------------------|----------------------------------|
------------------------------|----------------------------------|


  E  S S E.  S S S S E  S E      E  S S E.  S S S S E  S E    
------------------------------|---------------------7--L-----|
---------------------8--L-----|-----8-7-8---7-8-7-8------8~--|
--9--9-7-9---7-9-7-9------9~--|--L---------------------------|
------------------------------|------------------------------|
------------------------------|------------------------------|
------------------------------|------------------------------|


                                              |--3--|   |--3--|   
  E  S S E.  S S S S E  S E      E  S S Q     E  E  E   E  E  E   
------------------------------|----------------------------------|
--L--8-7-8---7-8-7-8-7--L-----|---------------8--7-----10--8--7--|
--------------------------9~--|--L--9-7-9~----------9------------|
------------------------------|----------------------------------|
------------------------------|----------------------------------|
------------------------------|----------------------------------|


  Riff F                                             
  S      S S S H.              S S S S H.            
----------------------------|-----------------------|
----------------------------|-----------------------|
----------------------------|-----------------------|
--9------9---9-9------------|--9-9---9-9------------|
--7------7---7-7------------|--7-7---7-7------------|
----------------------------|-----------------------|


   S  S S  S  H.               S  S S  S  Q    Q    Q     
---------------------------|-----------------------------|
---------------------------|-----------------------------|
---------------------------|-------------------5----7----|
--12-12---12-12------------|--14-14---14-14----5----7----|
--10-10---10-10------------|--12-12---12-12----3----5----|
---------------------------|-----------------------------|


  S S S S H.              S S S S H.               S  S S  S  H.            
-----------------------|-----------------------|---------------------------|
-----------------------|-----------------------|---------------------------|
-----------------------|-----------------------|---------------------------|
--9-9---9-9------------|--9-9---9-9------------|--12-12---12-12------------|
--7-7---7-7------------|--7-7---7-7------------|--10-10---10-10------------|
-----------------------|-----------------------|---------------------------|


                                Riff C                                      
   S  S S  S  Q    Q    Q       E      E  S S E  E  S S E  E  S S E  E  E   
-----------------------------|---------------------------------------------|
-----------------------------|---------------------------------------------|
-------------------5----7----|--9------9--x-x-4--4--x-x-5--5--x-x-7--7--7--|
--14-14---14-14----5----7----|--9------9--x-x-4--4--x-x-5--5--x-x-7--7--7--|
--12-12---12-12----3----5----|--7------7--x-x-2--2--x-x-3--3--x-x-5--5--5--|
-----------------------------|---------------------------------------------|


    S S S  S S S S S S  S S S S S S  S S S E  E  E     
|----------------------------------------------------||
|----------------------------------------------------||
|*--------------------------------------------------*||
|*-----------------------------------------7--7--7--*||
|---7-7-7-10-7-7-7-7-7-10-7-7-7-7-7-10-7-7-5--5--5---||
|----------------------------------------------------||


  E  E  S S E  E  S S E  E  S S E  E  E   
-----------------------------------------|
-----------------------------------------|
--9--9--x-x-4--4--x-x-5--5--x-x-7--7--7--|
--9--9--x-x-4--4--x-x-5--5--x-x-7--7--7--|
--7--7--x-x-2--2--x-x-3--3--x-x-5--5--5--|
-----------------------------------------|


  S S S  S S S S S S  S S S S S S  S S S E  E  E   
--------------------------------------------------|
--------------------------------------------------|
--------------------------------------------------|
-----------------------------------------7--7--7--|
--7-7-7-10-7-7-7-7-7-10-7-7-7-7-7-10-7-7-5--5--5--|
--------------------------------------------------|


  S S S  S S S S S S  S S S S S S  S S S E  E  S  S  
----------------------------------------------------|
----------------------------------------------------|
----------------------------------------------------|
-----------------------------------------7--7--4S-5-|
--7-7-7-10-7-7-7-7-7-10-7-7-7-7-7-10-7-7-5--5-------|
----------------------------------------------------|


  Verso A                                       
  S       S S S S S E  E  E  E  E  E  E  E  E   
-----------------------------------------------|
-----------------------------------------------|
--4-------4-4-5-4---7--4-----5--4--------------|
------------------5-------5--------5--4--5--7--|
-----------------------------------------------|
-----------------------------------------------|


  S S S  S S S S S S  S S S S S S  S S S E  E  E   
--------------------------------------------------|
--------------------------------------------------|
--------------------------------------------------|
-----------------------------------------7--7--7--|
--7-7-7-10-7-7-7-7-7-10-7-7-7-7-7-10-7-7-5--5--5--|
--------------------------------------------------|


  S S S  S S S S S S  S S S S S S  S S S E  E  S  S  
----------------------------------------------------|
----------------------------------------------------|
----------------------------------------------------|
-----------------------------------------7--7--4S-5-|
--7-7-7-10-7-7-7-7-7-10-7-7-7-7-7-10-7-7-5--5-------|
----------------------------------------------------|


  S S S S S S E  E  E  E  E  E  E  E  E   
-----------------------------------------|
-----------------------------------------|
--4-4-4-5-4---7--4-----5--4--------------|
------------5-------5--------5--4--5--7--|
-----------------------------------------|
-----------------------------------------|


  S S S  S S S S S S  S S S S S S  S S S E  E  E   
--------------------------------------------------|
--------------------------------------------------|
--------------------------------------------------|
-----------------------------------------7--7--7--|
--7-7-7-10-7-7-7-7-7-10-7-7-7-7-7-10-7-7-5--5--5--|
--------------------------------------------------|


  S S S  S S S S S S  S S S S S S  S S S E  E  E   
--------------------------------------------------|
--------------------------------------------------|
--------------------------------------------------|
-----------------------------------------7--7--7--|
--7-7-7-10-7-7-7-7-7-10-7-7-7-7-7-10-7-7-5--5--5--|
--------------------------------------------------|


  Outro                                      
  E     E  S S E  E  S S E  E  S S E  E  E   
--------------------------------------------|
--------------------------------------------|
--9-----9--x-x-4--4--x-x-5--5--x-x-7--7--7--|
--9-----9--x-x-4--4--x-x-5--5--x-x-7--7--7--|
--7-----7--x-x-2--2--x-x-3--3--x-x-5--5--5--|
--------------------------------------------|


  S S S  S S S S S S  S S S S S S  S S S E  E  E   
--------------------------------------------------|
--------------------------------------------------|
--------------------------------------------------|
-----------------------------------------7--7--7--|
--7-7-7-10-7-7-7-7-7-10-7-7-7-7-7-10-7-7-5--5--5--|
--------------------------------------------------|


  S S S  S S S S S S  S S S S S S  S S S E  E  E   
--------------------------------------------------|
--------------------------------------------------|
--------------------------------------------------|
-----------------------------------------7--7--7--|
--7-7-7-10-7-7-7-7-7-10-7-7-7-7-7-10-7-7-5--5--5--|
--------------------------------------------------|


  E  E  S S E  E  S S E  E  S S E  E  E     Q.      E  W                  
-----------------------------------------|------------------------------||
-----------------------------------------|------------------------------||
--9--9--x-x-4--4--x-x-5--5--x-x-7--7--7--|--9\--------------------------||
--9--9--x-x-4--4--x-x-5--5--x-x-7--7--7--|--9\--------------------------||
--7--7--x-x-2--2--x-x-3--3--x-x-5--5--5--|--7\--------------------------||
-----------------------------------------|------------------------------||




Guitar #4:

Adrian Smith

  Solo 1 Dave Murray                                             
                     |-----3-----|                               
   H                  S  S  E  S  S S S E     H.            Q     
E||------------------------------------------|---------------------|
B||------------------------------------------|---------------------|
G||------------------------------------------|---------------------|
D||---------------------7h-9p-7--5h-7-4-4-5--|--5~-----------------|
A||------------------------------------------|---------------------|
E||------------------------------------------|---------------------|


  W                   W                   H        S  S. S  S. S  E   
-------------------|-------------------|-----------------------------|
-------------------|-------------------|-----------------------------|
-------------------|-------------------|-----------------------------|
-------------------|-------------------|-----------7S-9--5S-7--4S-5--|
-------------------|-------------------|-----------------------------|
-------------------|-------------------|-----------------------------|


  H.            Q       W                   W                 
---------------------|-------------------|-------------------|
---------------------|-------------------|-------------------|
---------------------|-------------------|-------------------|
--5~-----------------|-------------------|-------------------|
---------------------|-------------------|-------------------|
---------------------|-------------------|-------------------|


           |--3--|  |--3-|  |----3---|                         
  H        S  S  S  S S  S  S  S E   E     H.            Q     
----------------------------------------|---------------------|
----------------------------------------|---------------------|
----------------------------------------|---------------------|
-----------4h-5p-4h-5-7h-9p-7h-9-4h--5--|--5~-----------------|
----------------------------------------|---------------------|
----------------------------------------|---------------------|


  W                   W                   H        S  S. S  S. S  E   
-------------------|-------------------|-----------------------------|
-------------------|-------------------|-----------------------------|
-------------------|-------------------|-----------------------------|
-------------------|-------------------|-----------7S-9--5S-7--4S-5--|
-------------------|-------------------|-----------------------------|
-------------------|-------------------|-----------------------------|


                                               Break              
  H.            Q       W                      W                  
---------------------|-------------------|--<>(7)----------------|
---------------------|-------------------|-----------------------|
---------------------|-------------------|-----------------------|
--5~-----------------|-------------------|-----------------------|
---------------------|-------------------|-----------------------|
---------------------|-------------------|-----------------------|


                                           Interludio 1a     
  W                   Q    H.              W.                
--L----------------|--L-----------------|-------------------|
-------------------|--------------------|-------------------|
-------------------|--------------------|-------------------|
-------------------|--------------------|-------------------|
-------------------|--------------------|-------------------|
-------------------|--------------------|-------------------|


    W.                  W.                  
|--------------------|--------------------||
|--------------------|--------------------||
|*-------------------|-------------------*||
|*-------------------|-------------------*||
|--------------------|--------------------||
|--------------------|--------------------||


  H         E.  S  H         E.  S      H          E.   S   Q.       E.  E.   
------------------------------------|----------------------------------------|
------------------------------------|----------------------------------------|
------------------------------------|----------------------------------------|
------------------------------------|----------------------------------------|
--7~--------L---7S-9~--------L---9S-|--10~---------L---10S-12~------10---9---|
------------------------------------|----------------------------------------|


  H         E.  S  H         E.  S      H          E.   S   Q.       E.  E.   
------------------------------------|----------------------------------------|
------------------------------------|----------------------------------------|
------------------------------------|----------------------------------------|
------------------------------------|----------------------------------------|
--7~--------L---7S-9~--------L---9S-|--10~---------L---10S-12~------10---9---|
------------------------------------|----------------------------------------|


  Interludio 1b                                      
                  PM PM PM                  PM PM PM 
  H             S S  S  S     H          S  S  S  S  
----------------------------------------------------|
----------------------------------------------------|
----------------------------------------------------|
----------------------------------------------------|
--7~------------L-7--7--7--9g10~---------L-10-10-10-|
----------------------------------------------------|


                    PM PM PM                      
      H          S  S  S  S  S   Q    S  E.  E.   
-------------------------------------------------|
-------------------------------------------------|
-------------------------------------------------|
-------------------------------------------------|
--10g12~---------L-12-12-12-12~--L------10---9---|
-------------------------------------------------|


              PM PM PM                  PM PM PM 
  H         S S  S  S     H          S  S  S  S  
------------------------------------------------|
------------------------------------------------|
------------------------------------------------|
------------------------------------------------|
--7~--------L-7--7--7--9g10~---------L-10-10-10-|
------------------------------------------------|


                    PM PM PM                      
      H          S  S  S  S  S   Q    S  E.  E.   
-------------------------------------------------|
-------------------------------------------------|
-------------------------------------------------|
-------------------------------------------------|
--10g12~---------L-12-12-12-12~--L------10---9---|
-------------------------------------------------|


  Interludio 1c                                      
                  PM PM PM                  PM PM PM 
  H             S S  S  S     H          S  S  S  S  
----------------------------------------------------|
----------------------------------------------------|
----------------------------------------------------|
----------------------------------------------------|
--7~------------L-7--7--7--9g10~---------L-10-10-10-|
----------------------------------------------------|


                    PM PM PM              
      H          S  S  S  S H.            
-----------------------------------------|
-----------------------------------------|
-----------------------------------------|
-----------------------------------------|
--10g12~---------L-12-12-12--------------|
-----------------------------------------|


              PM PM PM                  PM PM PM 
  H         S S  S  S     H          S  S  S  S  
------------------------------------------------|
------------------------------------------------|
------------------------------------------------|
------------------------------------------------|
--7~--------L-7--7--7--9g10~---------L-10-10-10-|
------------------------------------------------|


                    PM PM PM              
      H          S  S  S  S H.            
-----------------------------------------|
-----------------------------------------|
-----------------------------------------|
-----------------------------------------|
--10g12~---------L-12-12-12--------------|
-----------------------------------------|


  Riff E                                         
              PM PM PM                  PM PM PM 
  H         S S  S  S     H          S  S  S  S  
------------------------------------------------|
------------------------------------------------|
------------------------------------------------|
------------------------------------------------|
--7~--------L-7--7--7--9g10~---------L-10-10-10-|
------------------------------------------------|


                    PM PM PM                   
      H          S  S  S  S  Q.       E.  E.   
----------------------------------------------|
----------------------------------------------|
----------------------------------------------|
----------------------------------------------|
--10g12~---------L-12-12-12-12~------10---9---|
----------------------------------------------|


              PM PM PM                  PM PM PM 
  H         S S  S  S     H          S  S  S  S  
------------------------------------------------|
------------------------------------------------|
------------------------------------------------|
------------------------------------------------|
--7~--------L-7--7--7--9g10~---------L-10-10-10-|
------------------------------------------------|


                    PM PM PM                   
      H          S  S  S  S  Q.       E.  E.   
----------------------------------------------|
----------------------------------------------|
----------------------------------------------|
----------------------------------------------|
--10g12~---------L-12-12-12-12~------10---9---|
----------------------------------------------|


  Riff F                                      
  PM     PM PM PM PM PM PM PM PM PM  PMPM  PM 
  E      S  S  E  S  S  E  S  S  S   S S   S  
---------------------------------------------|
---------------------------------------------|
---------------------------------------------|
---------------------------------------------|
---------------------------------------------|
--0------0--0--0--0--0--0--0--0--0--10-7--10-|


  PM PM PM PM PM PM PM PM PM PM  PMPM  PM 
  E  S  S  E  S  S  E  S  S  S   S S   S  
-----------------------------------------|
-----------------------------------------|
-----------------------------------------|
-----------------------------------------|
-----------------------------------------|
--0--0--0--0--0--0--0--0--0--0--10-7--10-|


  PM PM PM PM PM PM PM PM PM PM PM PM    PM PM PM PM                  
  E  S  S  E  S  S  E  S  S  E  S  S     E  S  S  Q     Q      Q      
--------------------------------------|------------------------------|
--------------------------------------|------------------------------|
--------------------------------------|------------------------------|
--------------------------------------|----------------(9)----(7)----|
--------------------------------------|--7--------7----10------9-----|
--3--3--3--3--3--3--3--3--3--3--3--4--|--5--5--5--5------------------|


  PM PM PM PM PM PM PM PM PM PM  PMPM  PM 
  E  S  S  E  S  S  E  S  S  S   S S   S  
-----------------------------------------|
-----------------------------------------|
-----------------------------------------|
-----------------------------------------|
-----------------------------------------|
--0--0--0--0--0--0--0--0--0--0--10-7--10-|


  PM PM PM PM PM PM PM PM PM PM  PMPM  PM 
  E  S  S  E  S  S  E  S  S  S   S S   S  
-----------------------------------------|
-----------------------------------------|
-----------------------------------------|
-----------------------------------------|
-----------------------------------------|
--0--0--0--0--0--0--0--0--0--0--10-7--10-|


  PM PM PM PM PM PM PM PM PM PM PM PM    PM PM PM PM                  
  E  S  S  E  S  S  E  S  S  E  S  S     E  S  S  Q     Q      Q      
--------------------------------------|------------------------------|
--------------------------------------|------------------------------|
--------------------------------------|------------------------------|
--------------------------------------|----------------(9)----(7)----|
--------------------------------------|--7--------7----10------9-----|
--3--3--3--3--3--3--3--3--3--3--3--4--|--5--5--5--5------------------|


  Interludio 2                                      
  PM           PM PM PM PM PM PM PM PM PM  PMPM  PM 
  E            S  S  E  S  S  E  S  S  S   S S   S  
---------------------------------------------------|
---------------------------------------------------|
---------------------------------------------------|
---------------------------------------------------|
---------------------------------------------------|
--0------------0--0--0--0--0--0--0--0--0--10-7--10-|


  PM PM PM PM PM PM PM PM PM PM  PMPM  PM 
  E  S  S  E  S  S  E  S  S  S   S S   S  
-----------------------------------------|
-----------------------------------------|
-----------------------------------------|
-----------------------------------------|
-----------------------------------------|
--0--0--0--0--0--0--0--0--0--0--10-7--10-|


  PM PM PM PM PM PM PM PM PM PM PM PM    PM PM PM PM                  
  E  S  S  E  S  S  E  S  S  E  S  S     E  S  S  Q     Q      Q      
--------------------------------------|------------------------------|
--------------------------------------|------------------------------|
--------------------------------------|------------------------------|
--------------------------------------|----------------(9)----(7)----|
--------------------------------------|--7--------7----10------9-----|
--3--3--3--3--3--3--3--3--3--3--3--4--|--5--5--5--5------------------|


  PM PM PM PM PM PM PM PM PM PM  PMPM  PM 
  E  S  S  E  S  S  E  S  S  S   S S   S  
-----------------------------------------|
-----------------------------------------|
-----------------------------------------|
-----------------------------------------|
-----------------------------------------|
--0--0--0--0--0--0--0--0--0--0--10-7--10-|


  PM PM PM PM PM PM PM PM PM PM  PMPM  PM 
  E  S  S  E  S  S  E  S  S  S   S S   S  
-----------------------------------------|
-----------------------------------------|
-----------------------------------------|
-----------------------------------------|
-----------------------------------------|
--0--0--0--0--0--0--0--0--0--0--10-7--10-|


  PM PM PM PM PM PM PM PM PM PM PM PM    PM PM PM PM                  
  E  S  S  E  S  S  E  S  S  E  S  S     E  S  S  Q     Q      Q      
--------------------------------------|------------------------------|
--------------------------------------|------------------------------|
--------------------------------------|------------------------------|
--------------------------------------|----------------(9)----(7)----|
--------------------------------------|--7--------7----10------9-----|
--3--3--3--3--3--3--3--3--3--3--3--4--|--5--5--5--5------------------|


  Solo 2 Dave Murray                                      
  PM                 PM PM PM PM PM PM PM PM PM  PMPM  PM 
  E                  S  S  E  S  S  E  S  S  S   S S   S  
---------------------------------------------------------|
---------------------------------------------------------|
---------------------------------------------------------|
---------------------------------------------------------|
---------------------------------------------------------|
--0------------------0--0--0--0--0--0--0--0--0--10-7--10-|


  PM PM PM PM PM PM PM PM PM PM  PMPM  PM 
  E  S  S  E  S  S  E  S  S  S   S S   S  
-----------------------------------------|
-----------------------------------------|
-----------------------------------------|
-----------------------------------------|
-----------------------------------------|
--0--0--0--0--0--0--0--0--0--0--10-7--10-|


  PM PM PM PM PM PM PM PM PM PM PM PM    PM PM PM PM                  
  E  S  S  E  S  S  E  S  S  E  S  S     E  S  S  Q     Q      Q      
--------------------------------------|------------------------------|
--------------------------------------|------------------------------|
--------------------------------------|------------------------------|
--------------------------------------|----------------(9)----(7)----|
--------------------------------------|--7--------7----10------9-----|
--3--3--3--3--3--3--3--3--3--3--3--4--|--5--5--5--5------------------|


  PM PM PM PM PM PM PM PM PM PM  PMPM  PM 
  E  S  S  E  S  S  E  S  S  S   S S   S  
-----------------------------------------|
-----------------------------------------|
-----------------------------------------|
-----------------------------------------|
-----------------------------------------|
--0--0--0--0--0--0--0--0--0--0--10-7--10-|


  PM PM PM PM PM PM PM PM PM PM  PMPM  PM 
  E  S  S  E  S  S  E  S  S  S   S S   S  
-----------------------------------------|
-----------------------------------------|
-----------------------------------------|
-----------------------------------------|
-----------------------------------------|
--0--0--0--0--0--0--0--0--0--0--10-7--10-|


  PM PM PM PM PM PM PM PM PM PM PM PM  
  E  S  S  E  S  S  E  S  S  E  S  S   
--------------------------------------|
--------------------------------------|
--------------------------------------|
--------------------------------------|
--------------------------------------|
--3--3--3--3--3--3--3--3--3--3--3--4--|


  Solo 3 Adrian Smith                           
  PM                  PM PM PM                  
  E                   S  S  Q     Q      Q      
-----------------------------------------------|
-----------------------------------------------|
-----------------------------------------------|
---------------------------------(9)----(7)----|
--7-------------------------7----10------9-----|
--5-------------------5--5--5------------------|


  PM PM PM PM PM PM PM PM PM PM  PMPM  PM 
  E  S  S  E  S  S  E  S  S  S   S S   S  
-----------------------------------------|
-----------------------------------------|
-----------------------------------------|
-----------------------------------------|
-----------------------------------------|
--0--0--0--0--0--0--0--0--0--0--10-7--10-|


  PM PM PM PM PM PM PM PM PM PM  PMPM  PM 
  E  S  S  E  S  S  E  S  S  S   S S   S  
-----------------------------------------|
-----------------------------------------|
-----------------------------------------|
-----------------------------------------|
-----------------------------------------|
--0--0--0--0--0--0--0--0--0--0--10-7--10-|


  PM PM PM PM PM PM PM PM PM PM PM PM    PM PM PM PM                  
  E  S  S  E  S  S  E  S  S  E  S  S     E  S  S  Q     Q      Q      
--------------------------------------|------------------------------|
--------------------------------------|------------------------------|
--------------------------------------|------------------------------|
--------------------------------------|----------------(9)----(7)----|
--------------------------------------|--7--------7----10------9-----|
--3--3--3--3--3--3--3--3--3--3--3--4--|--5--5--5--5------------------|


  PM PM PM PM PM PM PM PM PM PM  PMPM  PM 
  E  S  S  E  S  S  E  S  S  S   S S   S  
-----------------------------------------|
-----------------------------------------|
-----------------------------------------|
-----------------------------------------|
-----------------------------------------|
--0--0--0--0--0--0--0--0--0--0--10-7--10-|


  PM PM PM PM PM PM PM PM PM PM  PMPM  PM 
  E  S  S  E  S  S  E  S  S  S   S S   S  
-----------------------------------------|
-----------------------------------------|
-----------------------------------------|
-----------------------------------------|
-----------------------------------------|
--0--0--0--0--0--0--0--0--0--0--10-7--10-|


  PM PM PM PM PM PM PM PM PM PM PM PM    PM PM PM PM                  
  E  S  S  E  S  S  E  S  S  E  S  S     E  S  S  Q     Q      Q      
--------------------------------------|------------------------------|
--------------------------------------|------------------------------|
--------------------------------------|------------------------------|
--------------------------------------|----------------(9)----(7)----|
--------------------------------------|--7--------7----10------9-----|
--3--3--3--3--3--3--3--3--3--3--3--4--|--5--5--5--5------------------|


  Interludio 2                                      
  PM           PM PM PM PM PM PM PM PM PM  PMPM  PM 
  E            S  S  E  S  S  E  S  S  S   S S   S  
---------------------------------------------------|
---------------------------------------------------|
---------------------------------------------------|
---------------------------------------------------|
---------------------------------------------------|
--0------------0--0--0--0--0--0--0--0--0--10-7--10-|


  PM PM PM PM PM PM PM PM PM PM  PMPM  PM 
  E  S  S  E  S  S  E  S  S  S   S S   S  
-----------------------------------------|
-----------------------------------------|
-----------------------------------------|
-----------------------------------------|
-----------------------------------------|
--0--0--0--0--0--0--0--0--0--0--10-7--10-|


  PM PM PM PM PM PM PM PM PM PM PM PM    PM PM PM PM                  
  E  S  S  E  S  S  E  S  S  E  S  S     E  S  S  Q     Q      Q      
--------------------------------------|------------------------------|
--------------------------------------|------------------------------|
--------------------------------------|------------------------------|
--------------------------------------|----------------(9)----(7)----|
--------------------------------------|--7--------7----10------9-----|
--3--3--3--3--3--3--3--3--3--3--3--4--|--5--5--5--5------------------|


  PM PM PM PM PM PM PM PM PM PM  PMPM  PM 
  E  S  S  E  S  S  E  S  S  S   S S   S  
-----------------------------------------|
-----------------------------------------|
-----------------------------------------|
-----------------------------------------|
-----------------------------------------|
--0--0--0--0--0--0--0--0--0--0--10-7--10-|


  PM PM PM PM PM PM PM PM PM PM  PMPM  PM 
  E  S  S  E  S  S  E  S  S  S   S S   S  
-----------------------------------------|
-----------------------------------------|
-----------------------------------------|
-----------------------------------------|
-----------------------------------------|
--0--0--0--0--0--0--0--0--0--0--10-7--10-|


  PM PM PM PM PM PM PM PM PM PM PM PM    PM PM PM PM                  
  E  S  S  E  S  S  E  S  S  E  S  S     E  S  S  Q     Q      Q      
--------------------------------------|------------------------------|
--------------------------------------|------------------------------|
--------------------------------------|------------------------------|
--------------------------------------|----------------(9)----(7)----|
--------------------------------------|--7--------7----10------9-----|
--3--3--3--3--3--3--3--3--3--3--3--4--|--5--5--5--5------------------|


  Riff F                                                                        
  S      S S S H.               S S S S H.               S S S S H.             
-----------------------------|------------------------|------------------------|
-----------------------------|------------------------|------------------------|
-----------------------------|------------------------|------------------------|
--5------5---5-5~------------|--5-5---5-5~------------|--9-9---9-9~------------|
-----------------------------|------------------------|------------------------|
-----------------------------|------------------------|------------------------|


   S  S S  S  Q     Q    Q       S S S S H.             
------------------------------|------------------------|
------------------------------|------------------------|
------------------------------|------------------------|
--10-10---10-10~----9----7----|--5-5---5-5~------------|
------------------------------|------------------------|
------------------------------|------------------------|


  S S S S H.               S S S S H.             
------------------------|------------------------|
------------------------|------------------------|
------------------------|------------------------|
--5-5---5-5~------------|--9-9---9-9~------------|
------------------------|------------------------|
------------------------|------------------------|


   S  S S  S  Q     Q    Q       W.                    W.                  
------------------------------|-------------------||---------------------||
------------------------------|-------------------||---------------------||
------------------------------|-------------------||*-------------------*||
--10-10---10-10~----9----7----|-------------------||*-------------------*||
------------------------------|-------------------||---------------------||
------------------------------|-------------------||---------------------||




Guitar #5:

Dave Murray

     Solo 1 Dave Murray                                              
                     |------3-----|                               
     H                  S   S  E  S  S S S E     H.            Q     
E||-------------------------------------------|---------------------|
B||-------------------------------------------|---------------------|
G||-------------------------------------------|---------------------|
D||-------------------------------------------|---------------------|
A||---------------------9h-10p-9--7h-9-5-5-7--|--7~-----------------|
E||-------------------------------------------|---------------------|


  W                   W                   H        S   S.S  S. S  E   
-------------------|-------------------|-----------------------------|
-------------------|-------------------|-----------------------------|
-------------------|-------------------|-----------------------------|
-------------------|-------------------|-----------------------------|
-------------------|-------------------|-----------9S-10-7S-9--5S-7--|
-------------------|-------------------|-----------------------------|


  H.            Q       W                   W                 
---------------------|-------------------|-------------------|
---------------------|-------------------|-------------------|
---------------------|-------------------|-------------------|
---------------------|-------------------|-------------------|
--7~-----------------|-------------------|-------------------|
---------------------|-------------------|-------------------|


           |--3--|  |--3-|  |----3---|                         
  H        S  S  S  S S  S  S  S E   E     H.            Q     
----------------------------------------|---------------------|
----------------------------------------|---------------------|
----------------------------------------|---------------------|
----------------------4h-5p-4h-5--------|---------------------|
-----------5h-7p-5h-7------------5h--7--|--7~-----------------|
----------------------------------------|---------------------|


  W                   W                   H        S   S.S  S. S  E   
-------------------|-------------------|-----------------------------|
-------------------|-------------------|-----------------------------|
-------------------|-------------------|-----------------------------|
-------------------|-------------------|-----------------------------|
-------------------|-------------------|-----------9S-10-7S-9--5S-7--|
-------------------|-------------------|-----------------------------|


                                               Break              
  H.            Q       W                      W                  
---------------------|-------------------|--<>(7)----------------|
---------------------|-------------------|-----------------------|
---------------------|-------------------|-----------------------|
---------------------|-------------------|-----------------------|
--7~-----------------|-------------------|-----------------------|
---------------------|-------------------|-----------------------|


                                           Interludio 1a     
  W                   Q    H.              W.                
--L----------------|--L-----------------|-------------------|
-------------------|--------------------|-------------------|
-------------------|--------------------|-------------------|
-------------------|--------------------|-------------------|
-------------------|--------------------|-------------------|
-------------------|--------------------|-------------------|


    W.                  W.                    W.                
|--------------------|--------------------||-------------------|
|--------------------|--------------------||-------------------|
|*-------------------|-------------------*||-------------------|
|*-------------------|-------------------*||-------------------|
|--------------------|--------------------||-------------------|
|--------------------|--------------------||-------------------|


  W.                  W.                  W.                
-------------------|-------------------|-------------------|
-------------------|-------------------|-------------------|
-------------------|-------------------|-------------------|
-------------------|-------------------|-------------------|
-------------------|-------------------|-------------------|
-------------------|-------------------|-------------------|


  Interludio 1b                                              
  ^             ^               ^            ^      ^   ^    
  H.            H.              H.           Q.     E.  E.   
-----------------------------|------------------------------|
-----------------------------|------------------------------|
-----------------------------|---------------5------4-------|
--2-------------5------------|--7------------5------4---7---|
--2-------------5------------|--7------------3------2---7---|
--0-------------3------------|--5-----------------------5---|


  ^            ^               ^            ^      ^   ^    
  H.           H.              H.           Q.     E.  E.   
----------------------------|------------------------------|
----------------------------|------------------------------|
----------------------------|---------------5------4-------|
--2------------5------------|--7------------5------4---7---|
--2------------5------------|--7------------3------2---7---|
--0------------3------------|--5-----------------------5---|


  Interludio 1c                                            
  ^             ^               ^                          
  H.            H.              H.           H.            
-----------------------------|----------------------------|
-----------------------------|----------------------------|
-----------------------------|----------------------------|
--2-------------5------------|--7-------------------------|
--2-------------5------------|--7-------------------------|
--0-------------3------------|--5-------------------------|


  ^            ^               ^                          
  H.           H.              H.           H.            
----------------------------|----------------------------|
----------------------------|----------------------------|
----------------------------|----------------------------|
--2------------5------------|--7-------------------------|
--2------------5------------|--7-------------------------|
--0------------3------------|--5-------------------------|


  Riff E                                                    
  ^            ^               ^            ^      ^   ^    
  H.           H.              H.           Q.     E.  E.   
----------------------------|------------------------------|
----------------------------|------------------------------|
----------------------------|---------------5------4-------|
--2------------5------------|--7------------5------4---7---|
--2------------5------------|--7------------3------2---7---|
--0------------3------------|--5-----------------------5---|


  ^            ^               ^            ^      ^   ^    
  H.           H.              H.           Q.     E.  E.   
----------------------------|------------------------------|
----------------------------|------------------------------|
----------------------------|---------------5------4-------|
--2------------5------------|--7------------5------4---7---|
--2------------5------------|--7------------3------2---7---|
--0------------3------------|--5-----------------------5---|


  Riff F                                                                        
         PM PM    PM PM    PM PM               PM PM    PM PM    PM PM          
  E      S  S  E  S  S  E  S  S  S S S S    E  S  S  E  S  S  E  S  S  S S S S  
-----------------------------------------|-------------------------------------|
-----------------------------------------|-------------------------------------|
-----------------------------------------|-------------------------------------|
--9------------9--------9----------------|--9--------9--------9----------------|
--7------7--7--7--7--7--7--7--7--7-5---5-|--7--7--7--7--7--7--7--7--7--7-5---5-|
-------------------------------------7---|---------------------------------7---|


       PM PM     PM PM     PM PM     PM PM        PM PM                 
   E   S  S  E   S  S  E   S  S  E   S  S     E   S  S  Q    Q    Q     
------------------------------------------|----------------------------|
------------------------------------------|----------------------------|
------------------------------------------|----------------------------|
--12--------12--------12--------12--------|--14--------14----5----7----|
--10--10-10-10--10-10-10--10-10-10--10-11-|--12--12-12-12----3----5----|
------------------------------------------|----------------------------|


     PM PM    PM PM    PM PM               PM PM    PM PM    PM PM          
  E  S  S  E  S  S  E  S  S  S S S S    E  S  S  E  S  S  E  S  S  S S S S  
-------------------------------------|-------------------------------------|
-------------------------------------|-------------------------------------|
-------------------------------------|-------------------------------------|
--9--------9--------9----------------|--9--------9--------9----------------|
--7--7--7--7--7--7--7--7--7--7-5---5-|--7--7--7--7--7--7--7--7--7--7-5---5-|
---------------------------------7---|---------------------------------7---|


       PM PM     PM PM     PM PM     PM PM        PM PM                 
   E   S  S  E   S  S  E   S  S  E   S  S     E   S  S  Q    Q    Q     
------------------------------------------|----------------------------|
------------------------------------------|----------------------------|
------------------------------------------|----------------------------|
--12--------12--------12--------12--------|--14--------14----5----7----|
--10--10-10-10--10-10-10--10-10-10--10-11-|--12--12-12-12----3----5----|
------------------------------------------|----------------------------|


  Interludio 2                                  
               PM PM    PM PM    PM PM          
  E            S  S  E  S  S  E  S  S  S S S S  
-----------------------------------------------|
-----------------------------------------------|
-----------------------------------------------|
--9------------------9--------9----------------|
--7------------7--7--7--7--7--7--7--7--7-5---5-|
-------------------------------------------7---|


     PM PM    PM PM    PM PM          
  E  S  S  E  S  S  E  S  S  S S S S  
-------------------------------------|
-------------------------------------|
-------------------------------------|
--9--------9--------9----------------|
--7--7--7--7--7--7--7--7--7--7-5---5-|
---------------------------------7---|


       PM PM     PM PM     PM PM     PM PM        PM PM                 
   E   S  S  E   S  S  E   S  S  E   S  S     E   S  S  Q    Q    Q     
------------------------------------------|----------------------------|
------------------------------------------|----------------------------|
------------------------------------------|----------------------------|
--12--------12--------12--------12--------|--14--------14----5----7----|
--10--10-10-10--10-10-10--10-10-10--10-11-|--12--12-12-12----3----5----|
------------------------------------------|----------------------------|


     PM PM    PM PM    PM PM               PM PM    PM PM    PM PM          
  E  S  S  E  S  S  E  S  S  S S S S    E  S  S  E  S  S  E  S  S  S S S S  
-------------------------------------|-------------------------------------|
-------------------------------------|-------------------------------------|
-------------------------------------|-------------------------------------|
--9--------9--------9----------------|--9--------9--------9----------------|
--7--7--7--7--7--7--7--7--7--7-5---5-|--7--7--7--7--7--7--7--7--7--7-5---5-|
---------------------------------7---|---------------------------------7---|


       PM PM     PM PM     PM PM     PM PM        PM PM                 
   E   S  S  E   S  S  E   S  S  E   S  S     E   S  S  Q    Q    Q     
------------------------------------------|----------------------------|
------------------------------------------|----------------------------|
------------------------------------------|----------------------------|
--12--------12--------12--------12--------|--14--------14----5----7----|
--10--10-10-10--10-10-10--10-10-10--10-11-|--12--12-12-12----3----5----|
------------------------------------------|----------------------------|


  Solo 2 Dave Murray                                             
  S                  S S S H.              S S S S H.            
----------------------------------------|-----------------------|
----------------------------------------|-----------------------|
----------------------------------------|-----------------------|
--9------------------9---9-9------------|--9-9---9-9------------|
--7------------------7---7-7------------|--7-7---7-7------------|
----------------------------------------|-----------------------|


   S  S S  S  H.               S  S S  S  Q    Q    Q     
---------------------------|-----------------------------|
---------------------------|-----------------------------|
---------------------------|-----------------------------|
--12-12---12-12------------|--14-14---14-14----5----7----|
--10-10---10-10------------|--12-12---12-12----3----5----|
---------------------------|-----------------------------|


  S S S S H.              S S S S H.               S  S S  S  H.            
-----------------------|-----------------------|---------------------------|
-----------------------|-----------------------|---------------------------|
-----------------------|-----------------------|---------------------------|
--9-9---9-9------------|--9-9---9-9------------|--12-12---12-12------------|
--7-7---7-7------------|--7-7---7-7------------|--10-10---10-10------------|
-----------------------|-----------------------|---------------------------|


   Solo 3 Adrian Smith                                                 
   S                   S S  S  Q    Q    Q       S S S S H.            
----------------------------------------------|-----------------------|
----------------------------------------------|-----------------------|
----------------------------------------------|-----------------------|
--14------------------14---14-14----5----7----|--9-9---9-9------------|
--12------------------12---12-12----3----5----|--7-7---7-7------------|
----------------------------------------------|-----------------------|


  S S S S H.               S  S S  S  H.            
-----------------------|---------------------------|
-----------------------|---------------------------|
-----------------------|---------------------------|
--9-9---9-9------------|--12-12---12-12------------|
--7-7---7-7------------|--10-10---10-10------------|
-----------------------|---------------------------|


   S  S S  S  Q    Q    Q       S S S S H.              S S S S H.            
-----------------------------|-----------------------|-----------------------|
-----------------------------|-----------------------|-----------------------|
-----------------------------|-----------------------|-----------------------|
--14-14---14-14----5----7----|--9-9---9-9------------|--9-9---9-9------------|
--12-12---12-12----3----5----|--7-7---7-7------------|--7-7---7-7------------|
-----------------------------|-----------------------|-----------------------|


   S  S S  S  H.               S  S S  S  Q    Q    Q     
---------------------------|-----------------------------|
---------------------------|-----------------------------|
---------------------------|-----------------------------|
--12-12---12-12------------|--14-14---14-14----5----7----|
--10-10---10-10------------|--12-12---12-12----3----5----|
---------------------------|-----------------------------|


  Interludio 2                                  
               PM PM    PM PM    PM PM          
  E            S  S  E  S  S  E  S  S  S S S S  
-----------------------------------------------|
-----------------------------------------------|
-----------------------------------------------|
--9------------------9--------9----------------|
--7------------7--7--7--7--7--7--7--7--7-5---5-|
-------------------------------------------7---|


     PM PM    PM PM    PM PM          
  E  S  S  E  S  S  E  S  S  S S S S  
-------------------------------------|
-------------------------------------|
-------------------------------------|
--9--------9--------9----------------|
--7--7--7--7--7--7--7--7--7--7-5---5-|
---------------------------------7---|


       PM PM     PM PM     PM PM     PM PM        PM PM                 
   E   S  S  E   S  S  E   S  S  E   S  S     E   S  S  Q    Q    Q     
------------------------------------------|----------------------------|
------------------------------------------|----------------------------|
------------------------------------------|----------------------------|
--12--------12--------12--------12--------|--14--------14----5----7----|
--10--10-10-10--10-10-10--10-10-10--10-11-|--12--12-12-12----3----5----|
------------------------------------------|----------------------------|


     PM PM    PM PM    PM PM               PM PM    PM PM    PM PM          
  E  S  S  E  S  S  E  S  S  S S S S    E  S  S  E  S  S  E  S  S  S S S S  
-------------------------------------|-------------------------------------|
-------------------------------------|-------------------------------------|
-------------------------------------|-------------------------------------|
--9--------9--------9----------------|--9--------9--------9----------------|
--7--7--7--7--7--7--7--7--7--7-5---5-|--7--7--7--7--7--7--7--7--7--7-5---5-|
---------------------------------7---|---------------------------------7---|


       PM PM     PM PM     PM PM     PM PM        PM PM                 
   E   S  S  E   S  S  E   S  S  E   S  S     E   S  S  Q    Q    Q     
------------------------------------------|----------------------------|
------------------------------------------|----------------------------|
------------------------------------------|----------------------------|
--12--------12--------12--------12--------|--14--------14----5----7----|
--10--10-10-10--10-10-10--10-10-10--10-11-|--12--12-12-12----3----5----|
------------------------------------------|----------------------------|


  Riff F                                               
  S      S S S H.               S S S S H.             
-----------------------------|------------------------|
-----------------------------|------------------------|
-----------------------------|------------------------|
-----------------------------|------------------------|
--7------7---7-7~------------|--7-7---7-7~------------|
-----------------------------|------------------------|


   S  S S  S  H.                S  S S  S  Q      Q    Q     
----------------------------|-------------------------------|
----------------------------|-------------------------------|
----------------------------|-------------------------------|
----------------------------|-------------------------------|
--10-10---10-10~------------|--12-12---12-12~----10----9----|
----------------------------|-------------------------------|


  S S S S H.               S S S S H.                S  S S  S  H.             
------------------------|------------------------|----------------------------|
------------------------|------------------------|----------------------------|
------------------------|------------------------|----------------------------|
------------------------|------------------------|----------------------------|
--7-7---7-7~------------|--7-7---7-7~------------|--10-10---10-10~------------|
------------------------|------------------------|----------------------------|


   S  S S  S  Q      Q    Q       W.                    W.                  
-------------------------------|-------------------||---------------------||
-------------------------------|-------------------||---------------------||
-------------------------------|-------------------||*-------------------*||
-------------------------------|-------------------||*-------------------*||
--12-12---12-12~----10----9----|-------------------||---------------------||
-------------------------------|-------------------||---------------------||




Voice Melody:

Bruce Dickinson

                           O     right yeah!                              
     W                E.   T  T  E.    S        E       W.                
E||-----------------------19--L-19----19----|---L--||--------------------|
B||-----------------------------------------|------||--------------------|
G||-----------------------16--L-16----16----|---L--||*-------------------|
D||-----------------------------------------|------||*-------------------|
A||-----------------------------------------|------||--------------------|
E||-----------------------------------------|------||--------------------|


                      Verso A                              
                                              I've   been  
  W.                  W                Q.     T    T S     
-------------------|--------------------------------------|
-------------------|--------------------------7----L-8----|
-------------------|--------------------------------------|
-------------------|--------------------------4----L-5----|
-------------------|--------------------------------------|
-------------------|--------------------------------------|


  loo king so long   for  younow you won't get a  way from  my  
  S   E    S  T    T S    E  E   E   E     E   E  E   E     E   
--7---7----8--7----L-----10--7-------8-----7-------------------|
---------------------8-----------8-------------8--7---8----10--|
--4---4----5--4----L------7--4-------5-----4-------------------|
---------------------5-----------5-------------5--4---5-----7--|
---------------------------------------------------------------|
---------------------------------------------------------------|


  grasp.                                               You've   been  
  W                H           W                Q.     T      T S     
----------------------------|----------------------------------------|
--5-------------------------|--------------------------7------L-8----|
----------------------------|----------------------------------------|
--2-------------------------|--------------------------4------L-5----|
----------------------------|----------------------------------------|
----------------------------|----------------------------------------|


  li ving so long in  hi ding in hi ding be hind that  false 
  S  E    S  S    S   E  E    E  E  E    E  E    E     E     
--7--7----8--7-------10--7-------8--7-----------------------|
------------------8-----------8----------8--7----8----10----|
--4--4----5--4--------7--4-------5--4-----------------------|
------------------5-----------5----------5--4----5-----7----|
------------------------------------------------------------|
------------------------------------------------------------|


                               Coro                         
  mask.                                                 And 
  W                H           W                Q.      E   
----------------------------|------------------------------|
--5-------------------------|--------------------------12--|
----------------------------|------------------------------|
--2-------------------------|---------------------------9--|
----------------------------|------------------------------|
----------------------------|------------------------------|


   you know andI  know that you ain't got  long now to  
   E   E    E  E  E    E    E   E     E    E    E   E   
--12--12---12--7--7----7----8---8-----8---10---12--10--|
-------------------------------------------------------|
---9---9----9--4--4----4----5---5-----5----7----9---7--|
-------------------------------------------------------|
-------------------------------------------------------|
-------------------------------------------------------|


   last.                                                 Your 
   W                H           W                Q.      E    
--12-------------------------|-------------------------------|
-----------------------------|--------------------------12---|
---9-------------------------|-------------------------------|
-----------------------------|---------------------------9---|
-----------------------------|-------------------------------|
-----------------------------|-------------------------------|


   looks    and yourfee lings are just the re  mains of  your 
   S     S  E   E   E   E     E   E    E   E   E     E   E    
--12-----L-12--12---7---7-----7---8----8---8--10----12--10---|
-------------------------------------------------------------|
---9-----L--9---9---4---4-----4---5----5---5---7-----9---7---|
-------------------------------------------------------------|
-------------------------------------------------------------|
-------------------------------------------------------------|


                                Verso A                         
   past.                                                You're  
   W                H           W                Q.     E       
--12-------------------------|---------------------------------|
-----------------------------|--------------------------8------|
---9-------------------------|---------------------------------|
-----------------------------|--------------------------5------|
-----------------------------|---------------------------------|
-----------------------------|---------------------------------|


  stan   ding in the  wings,there you wait for the cur tain  to  
  T    T E    S  E    E     E     E   E    E   E   E   E     E   
--7----L-7----8--7---10-----7---------8----7--------------------|
----------------------------------8------------8---7---8----10--|
--4----L-4----5--4----7-----4---------5----4--------------------|
----------------------------------5------------5---4---5-----7--|
----------------------------------------------------------------|
----------------------------------------------------------------|


  fall.                                          
  W                H           W.                
----------------------------|-------------------|
--5-------------------------|-------------------|
----------------------------|-------------------|
--2-------------------------|-------------------|
----------------------------|-------------------|
----------------------------|-------------------|


  Kno wi ii ing the  te rror and hol ding you have on  us  
  E   S  S  S   S    E  E    E   E   E    E   E    E   E   
--7---7--8--7-------10--7--------8---7--------------------|
----------------8------------8------------8---7----8--10--|
--4---4--5--4--------7--4--------5---4--------------------|
----------------5------------5------------5---4----5---7--|
----------------------------------------------------------|
----------------------------------------------------------|


  aa                   aa  aa  aa     all.                     Yeah, 
  W                E   E   E   E      W                Q.      E     
------------------------------10--|--12-----------------------------|
--5----------------L--12--13------|---------------------------12----|
-------------------------------7--|---9-----------------------------|
--2----------------L---9--10------|----------------------------9----|
----------------------------------|---------------------------------|
----------------------------------|---------------------------------|


   Coro                                                         
   I       know thatyou're go nna scratch me, and  maim me  and 
   S    S  E    E   E      E  E   E       E   E    E    E   E   
--12----L-12---12---7------7--7---8-------8---8---10---12--10--|
---------------------------------------------------------------|
---9----L--9----9---4------4--4---5-------5---5----7----9---7--|
---------------------------------------------------------------|
---------------------------------------------------------------|
---------------------------------------------------------------|


   maul.                                                 And 
   W                H           W                Q.      E   
--12-------------------------|------------------------------|
-----------------------------|--------------------------12--|
---9-------------------------|------------------------------|
-----------------------------|---------------------------9--|
-----------------------------|------------------------------|
-----------------------------|------------------------------|


   You    know I'mhel pless from your mes me  ri  sing cat 
   S   S  E    E  E   E     E    E    E   E   E   E    E   
--12---L-12---12--7---7-----7----8----8---8--10--12---10--|
----------------------------------------------------------|
---9---L--9----9--4---4-----4----5----5---5---7---9----7--|
----------------------------------------------------------|
----------------------------------------------------------|
----------------------------------------------------------|


   call.                                                Uh  uh! 
   Q.     E  W                   H.           H         E   E   
--12--------------------------|------------------------15------|
------------------------------|--------------------------------|
---9--------------------------|------------------------12--16--|
------------------------------|--------------------------------|
------------------------------|----------------------------14--|
------------------------------|--------------------------------|


                      Riff D                                                    
  W.                  W.                  W.                  W.                
-------------------|-------------------|-------------------|-------------------|
-------------------|-------------------|-------------------|-------------------|
-------------------|-------------------|-------------------|-------------------|
-------------------|-------------------|-------------------|-------------------|
-------------------|-------------------|-------------------|-------------------|
-------------------|-------------------|-------------------|-------------------|


                       Verso B                                         
                       Keep    yo our dis  tance, walk a    way, don't 
  W.                   E.      S. S.  E.   E.     E.   E.   E.   E.    
-------------------|--12------12-10--12---12-----12---12---12---10----|
-------------------|--------------------------------------------------|
-------------------|---9-------9--7---9----9------9----9----9----7----|
-------------------|--------------------------------------------------|
-------------------|--------------------------------------------------|
-------------------|--------------------------------------------------|


   take hi s  ba ai ait.        Don't you     stra         ay,         don't 
   E.   S. S. S. S. E.  Q.      E.    E.      H.           H        S  E.    
--12---12-10-12-15-12----------15----14---|--10------------8--------L-------|
------------------------------------------|---------------------------------|
---9----9--7--9-12--9----------12----11---|---7------------5--------L-19----|
------------------------------------------|---------------------------------|
------------------------------------------|---------------------------17----|
------------------------------------------|---------------------------------|


   fade a  wa aa ai ay.                                   
   E.   S. S. S. S. E.  H.              W.                
----------------15-------------------|-------------------|
--17---17-15-17----17----------------|-------------------|
----------------12-------------------|-------------------|
--14---14-12-14----14----------------|-------------------|
-------------------------------------|-------------------|
-------------------------------------|-------------------|


   Watch you ur step, he's out  to   get  you, 
   E.    S.  S. E.    E.   E.   E.   E.   E.   
--12----12--10-12----12---12---12---12---10---|
----------------------------------------------|
---9-----9---7--9-----9----9----9----9----7---|
----------------------------------------------|
----------------------------------------------|
----------------------------------------------|


   come what ma aa ai ay.         Don't you  
   E.   S.   S. S. S. E.  Q.      E.    E.   
--12---12---10-12-15-12----------15----14---|
--------------------------------------------|
---9----9----7--9-12--9----------12----11---|
--------------------------------------------|
--------------------------------------------|
--------------------------------------------|


   stra         ay,         from    the    na   rrow wa aa ai ay.               
   H.           H        S  T    T  E      E.   S.   S. S. S. E.  H.            
--10------------8--------L-------------|------------------15-------------------|
---------------------------------------|--17---17---15-17----17----------------|
---7------------5--------L-19----L-19--|------------------12-------------------|
---------------------------------------|--14---14---12-14----14----------------|
---------------------------17----L-17--|---------------------------------------|
---------------------------------------|---------------------------------------|


    W.                  
|---------------------||
|---------------------||
|*-------------------*||
|*-------------------*||
|---------------------||
|---------------------||



                      Verso A                      
                                              I'm  
  W.                  W                Q.     E    
-------------------|------------------------------|
-------------------|--------------------------8---|
-------------------|------------------------------|
-------------------|--------------------------5---|
-------------------|------------------------------|
-------------------|------------------------------|


  run ni ing an nd  hi ding in my dreams   you're al wa  ays 
  S   E  S   S  S   E  E    E  E  S      S E      E  E   E   
--7---7--8---7-----10--7-------8--7------L------------------|
----------------8-----------8--------------8------7--8--10--|
--4---4--5---4------7--4-------5--4------L------------------|
----------------5-----------5--------------5------4--5---7--|
------------------------------------------------------------|
------------------------------------------------------------|


  there.                                               You're   the  
  W                H           W                Q.     T      T S    
----------------------------|---------------------------------------|
--5-------------------------|--------------------------7------L-8---|
----------------------------|---------------------------------------|
--2-------------------------|--------------------------4------L-5---|
----------------------------|---------------------------------------|
----------------------------|---------------------------------------|


  Phan tom   of the ee  O  pe ra,   you're   the de vil, you're   just out  to  
  S    S   S S  S   S   E  S  T   T T      T S   E  E    S      S E    E    E   
--7----7---L-8--7------10--7--7---L----------8---8--7--------------------------|
--------------------8---------------8------L-------------8------L-7----8---10--|
--4----4---L-5--4-------7--4--4---L----------5---5--4--------------------------|
--------------------5---------------5------L-------------5------L-4----5----7--|
-------------------------------------------------------------------------------|
-------------------------------------------------------------------------------|


  sca                  aa         re.                      You 
  W                E   Q.         W                Q.      E   
------------------------------|--12---------------------------|
--5----------------L--12------|---------------------------12--|
------------------------------|---9---------------------------|
--2----------------L---9------|----------------------------9--|
------------------------------|-------------------------------|
------------------------------|-------------------------------|


   Outro                                                                  
   da    maged    my mind   and my soul it just  floats    through    the 
   E     S     S  E  S    S E   E  E    E  E     S      S  S       S  E   
--12----12-----L-12--7----L-7---7--8----8--8----10------L-12-------L-10--|
-------------------------------------------------------------------------|
---9-----9-----L--9--4----L-4---4--5----5--5-----7------L--9-------L--7--|
-------------------------------------------------------------------------|
-------------------------------------------------------------------------|
-------------------------------------------------------------------------|


   air.                                                  You 
   W                H           W                Q.      E   
--12-------------------------|------------------------------|
-----------------------------|--------------------------12--|
---9-------------------------|------------------------------|
-----------------------------|---------------------------9--|
-----------------------------|------------------------------|
-----------------------------|------------------------------|


   Haunt    me, you   taunt   me, you tor ture me  back at  your 
   S     S  E   S   S S     S E   E   E   E    E   E    E   E    
--12-----L-12--12---L-7-----L-7---7---8---8----8--10---12--10---|
----------------------------------------------------------------|
---9-----L--9---9---L-4-----L-4---4---5---5----5---7----9---7---|
----------------------------------------------------------------|
----------------------------------------------------------------|
----------------------------------------------------------------|


   lair.                         
   Q     Q    W                  
--12\--------------------------||
-------------------------------||
---9\--------------------------||
-------------------------------||
-------------------------------||
-------------------------------||




Chorus:
                            
Coro: Steve y Adrian

     Coro                         
   W                Q.      E   
E||------------------------------|
B||--------------------------17--|
G||--------------------------16--|
D||------------------------------|
A||------------------------------|
E||------------------------------|


   E   E   E   E   E   E   E   E   E   E   E   E   
--------------------------------------------------|
--20--20--20--19--19--19--17--17--17--19--20--19--|
--21--21--21--16--16--16--17--17--17--19--21--19--|
--------------------------------------------------|
--------------------------------------------------|
--------------------------------------------------|


   W                H         
-----------------------------|
--20-------------------------|
--21-------------------------|
-----------------------------|
-----------------------------|
-----------------------------|



  Verso B                                            
  W.                  W                E   E.   E.   
-------------------|----------------------19---19---|
-------------------|----------------------20---20---|
-------------------|----------------------21---21---|
-------------------|--------------------------------|
-------------------|--------------------------------|
-------------------|--------------------------------|


   H.            H         S E.     W.                  W.                
--17------------15---------L-----|-------------------|-------------------|
--19------------17---------L-----|-------------------|-------------------|
--19------------17---------L-----|-------------------|-------------------|
---------------------------------|-------------------|-------------------|
---------------------------------|-------------------|-------------------|
---------------------------------|-------------------|-------------------|




Duration Legend
---------------
W - whole
H - half
Q - quarter
E - 8th
S - 16th
T - 32nd
X - 64th
. - note dotted
|-n-|  - n-tuplets


Tablature Legend
----------------
L - tied note
x - dead note
g - grace note
(n) - ghost note
> - accentuded note
NH - natural harmonic
AH - artificial harmonic
TH - tapped harmonic
SH - semi harmonic
PH - pitch harmonic
h - hammer on
p - pull off
b - bend
br - bendRelease
pb - preBend
pbr - preBendRelease
brb - bendReleaseBend
\n/ - tremolo bar dip
\n - tremolo bar dive
-/n - tremolo bar Release up
/n\ - tremolo bar inverted dip
/n - tremolo bar return
-\n - tremolo bar Release down
S - shift slide
s - legato slide
/ -  slide into from below or out of upwards
\ -  slide into from above or out of downwards
~ - vibrato
W - wide vibrato
tr - trill
TP - tremolo picking
T - tapping
S - slap
P - pop
< - fade in
^ - brush up
v - brush down

            
            
Suggest correction
Creating personal tab
Creating personal tab
You can edit any tab online and save it as your Personal.

You can edit, replace or remove any tab part or add personal notes – all changes will be seen only by you.

Personal tabs can be accessed anytime from any device, even offline.
Learn more »
comments
print report bad tab
guest
You may want to rate the tab now too:
select rating
Wanna post a correction for this tab? Suggest correction