Oops, an error
Loading. Please wait.

Powerslave bass

version 2
version 2
22,326 views 24 this week
2 commentsread comments
1 2 3 4 5
x 13
add to favorites
×
Save as Personal and add changes to this tab that will be seen only by you. Learn more ›
×
You can save this tab as Personal to edit and correct it or add notes. All changes will be seen only by you. Learn more »
launch autoscroll
font size
0
reset
guitar tuner
backing track
0:00
0:00
edit
Autoscroll
slow
fast
+/-
esc
set tempo
stop
Author
Difficulty
Track 1
     E  S S E  S S E  S S S E.     E  S S E  S S E  S S S E.   
G||-----------------------------|-----------------------------|
D||-----------------------------|-----------------------------|
A||--0--0-0-0--0-0-0--0-0-0-3---|--0--0-0-0--0-0-0--0-0-0-1---|
E||-----------------------------|-----------------------------|


                                                  |-3-|     
  E  S S E  S S E  S S S E.     E  E  E  E  E  E  S S S E   
-----------------------------|-----7--6--7--9--7--6-7-6----|
-----------------------------|--------------------------8--|
--0--0-0-0--0-0-0--0-0-0-3---|--0--------------------------|
-----------------------------|-----------------------------|


    E  S S E  S S E  S S S E.     E  S S E  S S E  S S S E.   
|------------------------------|-----------------------------|
|*-----------------------------|-----------------------------|
|*--0--0-0-0--0-0-0--0-0-0-3---|--0--0-0-0--0-0-0--0-0-0-1---|
|------------------------------|-----------------------------|


                                                  |-3-|       
  E  S S E  S S E  S S S E.     E  E  E  E  E  E  S S S E   4x
-----------------------------|-----7--6--7--9--7--6-7-6-----||
-----------------------------|--------------------------8--*||
--0--0-0-0--0-0-0--0-0-0-3---|--0--------------------------*||
-----------------------------|------------------------------||


   H.           Q        H.            Q       H.           Q     
---9------------5----|--13------------10----|--9------------5----|
*--9------------5----|--13------------10----|--9------------5----|
*--7------------3----|--11-------------8----|--7------------3----|
---------------------|----------------------|--------------------|


   H.            Q          E  S S E  S S E  S S E  S S  
--13------------10-----||-------------------------------|
--13------------10----*||*----------------------------9-|
--11-------------8----*||*--7--7-7-7--7-7-7--7-7-7--7---|
-----------------------||-------------------------------|


  E  S S E  S S E  S S E  S S    E  S S E  S S  S S S S E  S S  
------------------------------|--------------------------------|
----------------9-----------9-|--------------------------------|
--7--7-7-7--7-7----7-7-7--7---|--7--7-7-7--7-7-10-7-7-7-7--7-7-|
------------------------------|--------------------------------|


  S S S S S  S  S  S  S  S  S  S  S  S  S S  4x  E  S S E  S S E  S S S E.   
---------------------------------------------||-----------------------------|
--------------------------------------------*||-----------------------------|
--7-9-9-9-9-10-10-10-10-12-12-12-12-12-10-9-*||--0--0-0-0--0-0-0--0-0-0-3---|
---------------------------------------------||-----------------------------|


  E  S S E  S S E  S S S E.     E  S S E  S S E  S S S E.   
-----------------------------|-----------------------------|
-----------------------------|-----------------------------|
--0--0-0-0--0-0-0--0-0-0-1---|--0--0-0-0--0-0-0--0-0-0-3---|
-----------------------------|-----------------------------|


                    |-3-|                                     
  E  E  E  E  E  E  S S S E       E  S S E  S S E  S S S E.   
-----7--6--7--9--7--6-7-6----||------------------------------|
--------------------------8--||*-----------------------------|
--0--------------------------||*--0--0-0-0--0-0-0--0-0-0-3---|
-----------------------------||------------------------------|


  E  S S E  S S E  S S S E.     E  S S E  S S E  S S S E.   
-----------------------------|-----------------------------|
-----------------------------|-----------------------------|
--0--0-0-0--0-0-0--0-0-0-1---|--0--0-0-0--0-0-0--0-0-0-3---|
-----------------------------|-----------------------------|


                    |-3-|                                                    
  E  E  E  E  E  E  S S S E   4x   H.           Q        H.            Q     
-----7--6--7--9--7--6-7-6-----||---9------------5----|--13------------10----|
--------------------------8--*||*--9------------5----|--13------------10----|
--0--------------------------*||*--7------------3----|--11-------------8----|
------------------------------||---------------------|----------------------|


  H.           Q        H.            Q          E  S S E  S S E  S S E  S S  
--9------------5----|--13------------10-----||-------------------------------|
--9------------5----|--13------------10----*||*----------------------------9-|
--7------------3----|--11-------------8----*||*--7--7-7-7--7-7-7--7-7-7--7---|
--------------------|-----------------------||-------------------------------|


  E  S S E  S S E  S S E  S S    E  S S E  S S  S S S S E  S S  
------------------------------|--------------------------------|
----------------9-----------9-|--------------------------------|
--7--7-7-7--7-7----7-7-7--7---|--7--7-7-7--7-7-10-7-7-7-7--7-7-|
------------------------------|--------------------------------|


  S S S S S  S  S  S  S  S  S  S  S  S  S S  4x  W                 
---------------------------------------------||--9----------------|
--------------------------------------------*||--9----------------|
--7-9-9-9-9-10-10-10-10-12-12-12-12-12-10-9-*||--7----------------|
---------------------------------------------||-------------------|


  H        E  E  E  E       H        H               E   Q     Q     E   E  E   
--L--------------------|----------------------|--14g16--14----13---------------|
--L--------------7-----|--7g9--------9--------|---------------------14---------|
--L--------7-----------|----------------------|-------------------------12-----|
-----------------------|----------------------|--------------------------------|


      H.           E  E     E  E  E  E  E  E  E  E       H        Q.     S S  
-------------------------|--------9-----------------|--------------------6-7-|
-------------------------|--7--9-----9--L--7--------|--7g9--------9----------|
--12g14------------L--7--|--------------------7-----|------------------------|
-------------------------|--------------------------|------------------------|


  E  Q    Q    E  E  E         H.           E  E     E  E  E  E  E  E  E  E   
--9--7----6-------------|-------------------------|--------9-----------------|
---------------7--------|-------------------------|--7--9-----9--------7-----|
------------------7-----|--12g14------------L--7--|--------------7-----------|
------------------------|-------------------------|--------------------------|


    H        H           E  Q    Q    E  E  E       H        H         
----------------------|--9--7----6-------------|----------------------|
--7g9--------9--------|------------------7-----|--7g9--------9--------|
----------------------|---------------7--------|----------------------|
----------------------|------------------------|----------------------|


      E   Q     Q     E   E  E     H        H           H        E  E  E  E   
--14g16--14----13----14--16-----|--------------------|-----------------------|
--------------------------------|--9--------9--------|--9--------------7-----|
--------------------------------|--------------------|-----------7-----------|
--------------------------------|--------------------|-----------------------|


    W                     E  Q    Q    E  E  E     H        E  E  E  E   
---------------------|--------------------------|-----------------------|
--7g9----------------|--7g9--7----6-------6--7--|--9--------L-----9-----|
---------------------|-----------------7--------|--------------9-----7--|
---------------------|--------------------------|-----------------------|


  Q.     S S E  E  E  E     Q.     E  Q.     E     Q.     E  E  E  E  E   
---------6-7-9--7--6-----|----------------------|------------7-----9-----|
--7-------------------7--|--5---------5---------|--5------7-----7-----7--|
-------------------------|---------5---------5--|------------------------|
-------------------------|----------------------|------------------------|


  H        E  E  E  E     Q.     S S E  E  E  E     Q.     E  Q.     E   
-----------------------|---------9-9-9--7--6-----|----------------------|
--9--------L-----9-----|--7-------------------7--|--5---------5---------|
--------------9-----7--|-------------------------|---------5---------5--|
-----------------------|-------------------------|----------------------|


  E  E  E  E  E  E  E  E     H        E  E  E  E     Q.     S S E  E  E  E   
--------7-----9--7--------|-----------------------|---------9-9-7--6--7-----|
--5--7-----7--------9--7--|--9--------L-----9-----|--7-------------------0--|
--------------------------|--------------9-----7--|-------------------------|
--------------------------|-----------------------|-------------------------|


  Q.     E  Q.     S S    E  E  E  E  E  E  E  E     H        E  E  E  E   
-------------------6-7-|--9--7--6-----7--6--------|-----------------------|
--5---------5----------|-----------7--------7-----|--9--------L-----9-----|
---------5-------------|--------------------------|--------------9-----7--|
-----------------------|--------------------------|-----------------------|


  Q.     S S E  E  E  E     E  E  E  E  E  E  E  E     E  E  E  E  E  E  Q      
---------9-9-9--7--6-----|--------------------------|--------------------------|
--7-------------------7--|--5--5--5--5--5--5--5--5--|--5--5--5--5--7--5--------|
-------------------------|--------------------------|--------------------7\----|
-------------------------|--------------------------|--------------------------|


    E  E  H        E  E     E  E  Q    E  E  E  E     Q.     S S Q.     E   
|------------------------|-------------------------|-----------------------|
|*-----------------------|-------------------------|-----------------------|
|*-----------------------|-------------------------|---------5-5-5---------|
|---7--5--7--------5--7--|-----5--7----5--7--5--0--|--3-----------------5--|


  E  E  Q    E  E  E  E   3x  E  E  H        E  E     E  E  Q    E  E  E  E   
--------------------------||-----------------------|-------------------------|
-------------------------*||-----------------------|-------------------------|
-------------7--5--4-----*||-----------------------|-------------------------|
-----3--5-------------5---||--7--5--7--------5--7--|-----5--7----5--7--5--0--|


  Q.     Q.     Q       H        E  E  E  E     E  E  H        E  E   
---------------------|-----------9--7--6-----|-----------------------|
---------------------|--------------------7--|--9--7--9--------7--9--|
---------5-----------|-----------------------|-----------------------|
--3-------------5----|--L--------------------|-----------------------|


  E  E  Q    E  E  E  E     Q.     S S Q.     E     E  E  Q    E  E  E  E   
-------------------------|---------7-7-7---------|-------------9--7--6-----|
--L--7--9----7--9--7--0--|--5-----------------7--|-----5--7-------------7--|
-------------------------|-----------------------|-------------------------|
-------------------------|-----------------------|-------------------------|


  E  E  H        E  E     E  S S E  E  E  E  E  E     Q.     S S Q.     E   
-----------------------|-----6-7-9--7--6-----6-----|---------7-7-7---------|
--9--7--9--------7--9--|--L---------------7-----7--|--5-----------------7--|
-----------------------|---------------------------|-----------------------|
-----------------------|---------------------------|-----------------------|


  E  E  Q    E  E  E  E     E  E  H        E  E     E  E  Q    E  E  E  E   
-------------9--7--6-----|-----------------------|-------------------------|
-----5--7-------------7--|--9--7--9--------7--9--|--L--7--9----7--9--7--0--|
-------------------------|-----------------------|-------------------------|
-------------------------|-----------------------|-------------------------|


  Q.     S S Q.     E     E  E  Q    E  E  E  E     E  E  H        E  E   
---------7-7-7---------|-------------9--7--6-----|-----------------------|
--5-----------------7--|-----5--7-------------7--|--9--7--9--------7--9--|
-----------------------|-------------------------|-----------------------|
-----------------------|-------------------------|-----------------------|


  E  S S E  E  E  E  E  E     Q.     S S Q.     E     E  E  Q    E  E  E  E   
-----6-6-7--9--7-----6-----|---------7-7-7---------|-------------------------|
--L---------------7-----7--|--5-----------------7--|-----5--7----------------|
---------------------------|-----------------------|-------------7--9--7--5--|
---------------------------|-----------------------|-------------------------|


    E  E  H        E  E     E  E  Q    E  E  E  E     Q.     S S Q.     E   
|------------------------|-------------------------|-----------------------|
|*-----------------------|-------------------------|-----------------------|
|*-----------------------|-------------------------|---------5-5-5---------|
|---7--5--7--------5--7--|-----5--7----5--7--5--0--|--3-----------------5--|


  E  E  Q    E  E  E  E   3x  E  E  H        E  E     E  E  Q    E  E  E  E   
--------------------------||-----------------------|-------------------------|
-------------------------*||-----------------------|-------------------------|
-------------7--5--4-----*||-----------------------|-------------------------|
-----3--5-------------5---||--7--5--7--------5--7--|-----5--7----5--7--5--0--|


  H        Q    E  E     W                   H.           E  E   
----------------------|-------------------|---------------------|
----------------------|-------------------|---------------------|
-----------5----8--7--|--L----------------|--L------------6--5--|
--3-------------------|-------------------|---------------------|


  W                   H.           E  E     W                 
-------------------|---------------------|-------------------|
-------------------|---------------------|-------------------|
--L----------------|--L------------3--2--|--L----------------|
-------------------|---------------------|-------------------|


  H.           E  E     W                   W                 
---------------------|-------------------|-------------------|
---------------------|-------------------|-------------------|
--L------------------|-------------------|-------------------|
---------------3--0--|--L----------------|--L----------------|


  E  S S E  S S E  S S S E.     E  S S E  S S E  S S S E.   
-----------------------------|-----------------------------|
-----------------------------|-----------------------------|
--0--0-0-0--0-0-0--0-0-0-3---|--0--0-0-0--0-0-0--0-0-0-1---|
-----------------------------|-----------------------------|


                                                  |-3-|     
  E  S S E  S S E  S S S E.     E  E  E  E  E  E  S S S E   
-----------------------------|-----7--6--7--9--7--6-7-6----|
-----------------------------|--------------------------8--|
--0--0-0-0--0-0-0--0-0-0-3---|--0--------------------------|
-----------------------------|-----------------------------|


    E  S S E  S S E  S S S E.     E  S S E  S S E  S S S E.   
|------------------------------|-----------------------------|
|*-----------------------------|-----------------------------|
|*--0--0-0-0--0-0-0--0-0-0-3---|--0--0-0-0--0-0-0--0-0-0-1---|
|------------------------------|-----------------------------|


                                                  |-3-|       
  E  S S E  S S E  S S S E.     E  E  E  E  E  E  S S S E   4x
-----------------------------|-----7--6--7--9--7--6-7-6-----||
-----------------------------|--------------------------8--*||
--0--0-0-0--0-0-0--0-0-0-3---|--0--------------------------*||
-----------------------------|------------------------------||


   H.           Q        H.            Q       H.           Q     
---9------------5----|--13------------10----|--9------------5----|
*--9------------5----|--13------------10----|--9------------5----|
*--7------------3----|--11-------------8----|--7------------3----|
---------------------|----------------------|--------------------|


   H.            Q          E  S S E  S S E  S S E  S S  
--13------------10-----||-------------------------------|
--13------------10----*||*----------------------------9-|
--11-------------8----*||*--7--7-7-7--7-7-7--7-7-7--7---|
-----------------------||-------------------------------|


  E  S S E  S S E  S S E  S S    E  S S E  S S  S S S S E  S S  
------------------------------|--------------------------------|
----------------9-----------9-|--------------------------------|
--7--7-7-7--7-7----7-7-7--7---|--7--7-7-7--7-7-10-7-7-7-7--7-7-|
------------------------------|--------------------------------|


  S S S S S  S  S  S  S  S  S  S  S  S  S S  3x  E  S S E  S S E  S S E  S S  
---------------------------------------------||------------------------------|
--------------------------------------------*||----------------------------9-|
--7-9-9-9-9-10-10-10-10-12-12-12-12-12-10-9-*||--7--7-7-7--7-7-7--7-7-7--7---|
---------------------------------------------||------------------------------|


  E  S S E  S S E  S S E  S S    E  S S E  S S  S S S S E  E   
------------------------------|-------------------------------|
----------------9-----------9-|-------------------------------|
--7--7-7-7--7-7----7-7-7--7---|--7--7-7-7--7-7-10-7-7-7-7--0--|
------------------------------|-------------------------------|


  E  E  E  E  E  E  E  E     E  S S E  S S  S S S S E  E     W                 
--------5-----------7-----|-------------------------------|-------------------|
-----5-----------7--------|-------------------------------|-------------------|
--3--------3--5--------5--|--7--7-7-7--7-7-10-7-7-7-7--0--|--3----------------|
--------------------------|-------------------------------|-------------------|


  Q    Q    H           W                   W                 
-------7----7--------|--9----------------|--L----------------|
---------------------|--9----------------|--L----------------|
--5------------------|--7----------------|--L----------------|
---------------------|-------------------|-------------------|


  W                   Q    Q    Q    Q       Q    Q    H         
--L----------------|----------------------|---------------------|
--L----------------|--7----6----7----9----|--7----6-------------|
--L----------------|----------------------|------------8--------|
-------------------|----------------------|---------------------|


  W                   W                   Q    Q    Q    Q      
-------------------|--9----------------|----------------------||
-------------------|--9----------------|----------------------||
--L----------------|--7----------------|--7-------------------||
-------------------|-------------------|----------------------||




Duration Legend
---------------
W - whole
H - half
Q - quarter
E - 8th
S - 16th
T - 32nd
X - 64th
. - note dotted
|-n-|  - n-tuplets


Tablature Legend
----------------
L - tied note
x - dead note
g - grace note
(n) - ghost note
> - accentuded note
NH - natural harmonic
AH - artificial harmonic
TH - tapped harmonic
SH - semi harmonic
PH - pitch harmonic
h - hammer on
p - pull off
b - bend
br - bendRelease
pb - preBend
pbr - preBendRelease
brb - bendReleaseBend
\n/ - tremolo bar dip
\n - tremolo bar dive
-/n - tremolo bar Release up
/n\ - tremolo bar inverted dip
/n - tremolo bar return
-\n - tremolo bar Release down
S - shift slide
s - legato slide
/ -  slide into from below or out of upwards
\ -  slide into from above or out of downwards
~ - vibrato
W - wide vibrato
tr - trill
TP - tremolo picking
T - tapping
S - slap
P - pop
< - fade in
^ - brush up
v - brush down
Suggest correction
Creating personal tab
Creating personal tab
You can edit any tab online and save it as your Personal.

You can edit, replace or remove any tab part or add personal notes – all changes will be seen only by you.

Personal tabs can be accessed anytime from any device, even offline.
Learn more »
comments
print report bad tab
2 comments total.
0 reply
bassman213293 175 Sep 17, 2008 12:11 AM

this tab is really good, just the 4th bar is in a higher octave and so is the chorus
but other then that awesome tab =)

0 reply
Zip2461996 10 Oct 03, 2011 01:28 AM

great tab man some mistakes in the solo and the chorus check here: http://www.youtube.com/watch?v=t8EUUY1mHmA btw 5 from me

guest
You may want to rate the tab now too:
select rating
Wanna post a correction for this tab? Suggest correction