Oops, an error
Loading. Please wait.

Powerslave bass

version 3
version 3
6,181 views 3 this week
1 commentread comment
1 2 3 4 5
1 last vote to show rating
add to favorites
×
Save as Personal and add changes to this tab that will be seen only by you. Learn more ›
×
You can save this tab as Personal to edit and correct it or add notes. All changes will be seen only by you. Learn more »
launch autoscroll
font size
0
reset
guitar tuner
backing track
0:00
0:00
edit
Autoscroll
slow
fast
+/-
esc
set tempo
stop
Author
G||-----------------------------|-----------------------------|
D||-----------------------------|-----------------------------|
A||-----------------------------|-----------------------------|
E||--5--5-5-5--5-5-5--5-5-5-8---|--5--5-5-5--5-5-5--5-5-5-6---|


-----------------------------|-------------------------------------|
-----------------------------|-----12--11--12--14--12--11-12-11----|
-----------------------------|--0-------------------------------12-|
--5--5-5-5--5-5-5--5-5-5-8---|-------------------------------------|

|------------------------------|-----------------------------|
|*-----------------------------|-----------------------------|
|*-----------------------------|-----------------------------|
|--5--5-5-5--5-5-5--5-5-5-8----|--5--5-5-5--5-5-5--5-5-5-6---|

                                                                     4x
-----------------------------|---------------------------------------||
-----------------------------|-----12--11--12--14--12--11-12-11-----*||
-----------------------------|--0-------------------------------12--*||
--5--5-5-5--5-5-5--5-5-5-8---|---------------------------------------||

---9------------5----|----------------------|--9--------------5----|
*--9------------5----|---4------------------|--9--------------5----|
*--7------------3----|---4------------------|--7--------------3----|
---------------------|---6------------------|----------------------|

-----------------------||-----------------------------9---|
--4-------------------*||*------------------------------9-|
--4-------------------*||*--7--7-7-7--7-7-7--7-7-7--7-----|
--6--------------------||---------------------------------|

----------------5-----------7---|--------------------------------|
-----------------5------------7-|--------------------------------|
--3--3-3-3--3-3----5-5-5--5-----|--7--7-7-7--7-7-10-7-7-7-7--7-7-|
--------------------------------|--------------------------------|


                                             4x
---------------------------------------------||
--------------------------------------------*||
--7-9-9-9-9-10-10-10-10-12-12-12-12-12-10-9-*||
---------------------------------------------||

-----------------------------|-----------------------------|
-----------------------------|-----------------------------|
-----------------------------|-----------------------------|
--5--5-5-5--5-5-5--5-5-5-8---|--5--5-5-5--5-5-5--5-5-5-6---|


-----------------------------|-------------------------------------|
-----------------------------|-----12--11--12--14--12--11-12-11----|
-----------------------------|--0-------------------------------12-|
--5--5-5-5--5-5-5--5-5-5-8---|-------------------------------------|

|------------------------------|-----------------------------|
|*-----------------------------|-----------------------------|
|*-----------------------------|-----------------------------|
|--5--5-5-5--5-5-5--5-5-5-8----|--5--5-5-5--5-5-5--5-5-5-6---|


                                                                     4x
-----------------------------|---------------------------------------||
-----------------------------|-----12--11--12--14--12--11-12-11-----*||
-----------------------------|--0-------------------------------12--*||
--5--5-5-5--5-5-5--5-5-5-8---|---------------------------------------||

---9------------5----|----------------------|--9--------------5----|
*--9------------5----|---4------------------|--9--------------5----|
*--7------------3----|---4------------------|--7--------------3----|
---------------------|---6------------------|----------------------|

-----------------------||-----------------------------9---|
--4-------------------*||*------------------------------9-|
--4-------------------*||*--7--7-7-7--7-7-7--7-7-7--7-----|
--6--------------------||---------------------------------|

----------------5-----------7---|--------------------------------|
-----------------5------------7-|--------------------------------|
--3--3-3-3--3-3----5-5-5--5-----|--7--7-7-7--7-7-10-7-7-7-7--7-7-|
--------------------------------|--------------------------------|


                                             4x
---------------------------------------------||--9-----------|
--------------------------------------------*||--9-----------|
--7-9-9-9-9-10-10-10-10-12-12-12-12-12-10-9-*||--7-----------|
---------------------------------------------||--------------|


----------------------|----------------------|--14g16--14----13---------------|
----------------7-----|--7g9--------9--------|---------------------14---------|
----------7-----------|----------------------|-------------------------12-----|
-----------------------|----------------------|-------------------------------|

-------------------------|--------9-----------------|--------------------6-7-|
-------------------------|--7--9-----9--L--7--------|--7g9--------9----------|
--12g14------------L--7--|--------------------7-----|------------------------|
-------------------------|--------------------------|------------------------|


--9--7----6-------------|-------------------------|--------9-----------------|
---------------7--------|-------------------------|--7--9-----9--------7-----|
------------------7-----|--12g14------------L--7--|--------------7-----------|
------------------------|-------------------------|--------------------------|

----------------------|--9--7----6-------------|----------------------|
--7g9--------9--------|------------------7-----|--7g9--------9--------|
----------------------|---------------7--------|----------------------|
----------------------|------------------------|----------------------|

--14g16--14----13----14--16-----|--------------------|-----------------------|
--------------------------------|--9--------9--------|--9--------------7-----|
--------------------------------|--------------------|-----------7-----------|
--------------------------------|--------------------|-----------------------|

---------------------|--------------------------|-----------------------|
--7g9----------------|--7g9--7----6-------6--7--|--9--------L-----9-----|
---------------------|-----------------7--------|--------------9-----7--|
---------------------|--------------------------|-----------------------|

---------6-7-9--7--6-----|----------------------|------------7-----9-----|
--7-------------------7--|--5---------5---------|--5------7-----7-----7--|
-------------------------|---------5---------5--|------------------------|
-------------------------|----------------------|------------------------|

-----------------------|---------9-9-9--7--6-----|----------------------|
--9--------L-----9-----|--7-------------------7--|--5---------5---------|
--------------9-----7--|-------------------------|---------5---------5--|
-----------------------|-------------------------|----------------------|

--------7-----9--7--------|-----------------------|---------9-9-7--6--7-----|
--5--7-----7--------9--7--|--9--------L-----9-----|--7-------------------0--|
--------------------------|--------------9-----7--|-------------------------|
--------------------------|-----------------------|-------------------------|

-------------------6-7-|--9--7--6-----7--6--------|-----------------------|
--5---------5----------|-----------7--------7-----|--9--------L-----9-----|
---------5-------------|--------------------------|--------------9-----7--|
-----------------------|--------------------------|-----------------------|

---------9-9-9--7--6-----|--------------------------|--------------------------|
--7-------------------7--|--5--5--5--5--5--5--5--5--|--5--5--5--5--7--5--------|
-------------------------|--------------------------|--------------------7-----|
-------------------------|--------------------------|--------------------------|

|------------------------|-------------------------|-----------------------|
|*-----------------------|-------------------------|-----------------------|
|*-----------------------|-------------------------|---------5-5-5---------|
|---7--5--7--------5--7--|-----5--7----5--7--5--0--|--3-----------------5--|

--------------------------||-----------------------|-------------------------|
-------------------------*||-----------------------|-------------------------|
-------------7--5--4-----*||-----------------------|-------------------------|
-----3--5-------------5---||--7--5--7--------5--7--|-----5--7----5--7--5--0--|

---------------------|-----------9--7--6-----|-----------------------|
---------------------|--------------------7--|--9--7--9--------7--9--|
---------5-----------|-----------------------|-----------------------|
--3-------------5----|--L--------------------|-----------------------|

-------------------------|---------7-7-7---------|-------------9--7--6-----|
--L--7--9----7--9--7--0--|--5-----------------7--|-----5--7-------------7--|
-------------------------|-----------------------|-------------------------|
-------------------------|-----------------------|-------------------------|

-----------------------|-----6-7-9--7--6-----6-----|---------7-7-7---------|
--9--7--9--------7--9--|--L---------------7-----7--|--5-----------------7--|
-----------------------|---------------------------|-----------------------|
-----------------------|---------------------------|-----------------------|

-------------9--7--6-----|-----------------------|-------------------------|
-----5--7-------------7--|--9--7--9--------7--9--|--L--7--9----7--9--7--0--|
-------------------------|-----------------------|-------------------------|
-------------------------|-----------------------|-------------------------|

---------7-7-7---------|-------------9--7--6-----|-----------------------|
--5-----------------7--|-----5--7-------------7--|--9--7--9--------7--9--|
-----------------------|-------------------------|-----------------------|
-----------------------|-------------------------|-----------------------|

-----6-6-7--9--7-----6-----|---------7-7-7---------|-------------------------|
--L---------------7-----7--|--5-----------------7--|-----5--7----------------|
---------------------------|-----------------------|-------------7--9--7--5--|
---------------------------|-----------------------|-------------------------|

|------------------------|-------------------------|-----------------------|
|*-----------------------|-------------------------|-----------------------|
|*-----------------------|-------------------------|---------5-5-5---------|
|---7--5--7--------5--7--|-----5--7----5--7--5--0--|--3-----------------5--|

--------------------------||-----------------------|-------------------------|
-------------------------*||-----------------------|-------------------------|
-------------7--5--4-----*||-----------------------|-------------------------|
-----3--5-------------5---||--7--5--7--------5--7--|-----5--7----5--7--5--0--|

----------------------|-------------------|---------------------|
----------------------|-------------------|---------------------|
-----------5----8--7--|--L----------------|--L------------6--5--|
--3-------------------|-------------------|---------------------|

-------------------|---------------------|-------------------|
-------------------|---------------------|-------------------|
--L----------------|--L------------3--2--|--L----------------|
-------------------|---------------------|-------------------|

---------------------|-------------------|-------------------|
---------------------|-------------------|-------------------|
--L------------------|-------------------|-------------------|
---------------3--0--|--L----------------|--L----------------|

G||-----------------------------|-----------------------------|
D||-----------------------------|-----------------------------|
A||-----------------------------|-----------------------------|
E||--5--5-5-5--5-5-5--5-5-5-8---|--5--5-5-5--5-5-5--5-5-5-6---|


-----------------------------|-------------------------------------|
-----------------------------|-----12--11--12--14--12--11-12-11----|
-----------------------------|--0-------------------------------12-|
--5--5-5-5--5-5-5--5-5-5-8---|-------------------------------------|

|------------------------------|-----------------------------|
|*-----------------------------|-----------------------------|
|*-----------------------------|-----------------------------|
|--5--5-5-5--5-5-5--5-5-5-8----|--5--5-5-5--5-5-5--5-5-5-6---|

                                                                     4x
-----------------------------|---------------------------------------||
-----------------------------|-----12--11--12--14--12--11-12-11-----*||
-----------------------------|--0-------------------------------12--*||
--5--5-5-5--5-5-5--5-5-5-8---|---------------------------------------||

---9------------5----|----------------------|--9--------------5----|
*--9------------5----|---4------------------|--9--------------5----|
*--7------------3----|---4------------------|--7--------------3----|
---------------------|---6------------------|----------------------|

-----------------------||-----------------------------9---|
--4-------------------*||*------------------------------9-|
--4-------------------*||*--7--7-7-7--7-7-7--7-7-7--7-----|
--6--------------------||---------------------------------|

----------------5-----------7---|--------------------------------|
-----------------5------------7-|--------------------------------|
--3--3-3-3--3-3----5-5-5--5-----|--7--7-7-7--7-7-10-7-7-7-7--7-7-|
--------------------------------|--------------------------------|


                                             3x
---------------------------------------------||
--------------------------------------------*||
--7-9-9-9-9-10-10-10-10-12-12-12-12-12-10-9-*||
---------------------------------------------||

----------------------------9--|
-----------------------------9-|
--7--7-7-7--7-7-7--7-7-7--7----|
-------------------------------|


----------------5-----------7---|--------------------------------|
-----------------5------------7-|--------------------------------|
--3--3-3-3--3-3----5-5-5--5-----|--7--7-7-7--7-7-10-7-7-7-7--0---|
--------------------------------|--------------------------------|

--------------------------------7-----|-------------------------------|-------------------|
-----------------------------7--------|-------------------------------|-------------------|
--3--3-3-3--3-3--------3--5--------5--|--7--7-7-7--7-7-10-7-7-7-7--0--|--3----------------|
--------------------------------------|-------------------------------|-------------------|

-------7----7--------|--9----------------|--L----------------|
---------------------|--9----------------|--L----------------|
--5------------------|--7----------------|--L----------------|
---------------------|-------------------|-------------------|

--L----------------|----------------------|---------------------|
--L----------------|--7----6----7----9----|--7----6-------------|
--L----------------|----------------------|------------8--------|
-------------------|----------------------|---------------------|

-------------------|--9----------------|----------------------||
-------------------|--9----------------|----------------------||
--L----------------|--7----------------|--7-------------------||
-------------------|-------------------|----------------------||



 Tablature Legend
----------------
L - tied note
x - dead note
g - grace note
(n) - ghost note
> - accentuded note
NH - natural harmonic
AH - artificial harmonic
TH - tapped harmonic
SH - semi harmonic
PH - pitch harmonic
h - hammer on
p - pull off
b - bend
br - bendRelease
pb - preBend
pbr - preBendRelease
brb - bendReleaseBend
\n/ - tremolo bar dip
\n - tremolo bar dive
-/n - tremolo bar Release up
/n\ - tremolo bar inverted dip
/n - tremolo bar return
-\n - tremolo bar Release down
S - shift slide
s - legato slide
/ -  slide into from below or out of upwards
\ -  slide into from above or out of downwards
~ - vibrato
W - wide vibrato
tr - trill
TP - tremolo picking
T - tapping
S - slap
P - pop
< - fade in
^ - brush up
v - brush down

            
            
Suggest correction
Creating personal tab
Creating personal tab
You can edit any tab online and save it as your Personal.

You can edit, replace or remove any tab part or add personal notes – all changes will be seen only by you.

Personal tabs can be accessed anytime from any device, even offline.
Learn more »
Give kudos to tab author, rate the tab!
1 2 3 4 5
comments
print report bad tab
1 comment total.
-1 reply
MusicMan24 1,134 May 02, 2010 06:43 PM

Awesome tab, but for the main riff, you can just play this part:

G|-----------------------------------|
D|---12--11--12--14--12--11-12-11----|
A|0-------------------------------12-|
E|-----------------------------------|


Like this:

G|-----------------------|
D|-----------------------|
A|--5--4--5--7--5-4h5p4--|
E|5--------------------5-|


Just an easier way to play it

guest
You may want to rate the tab now too:
select rating
Wanna post a correction for this tab? Suggest correction