Oops, an error
Loading. Please wait.

Powerslave tab

version 3
version 3
259 views 3 this week
no commentswrite comment
1 2 3 4 5
x 3
add to favorites
×
Save as Personal and add changes to this tab that will be seen only by you. Learn more ›
×
You can save this tab as Personal to edit and correct it or add notes. All changes will be seen only by you. Learn more »
launch autoscroll
font size
0
reset
how to read this tab
guitar tuner
backing track
0:00
0:00
edit
Autoscroll
slow
fast
+/-
esc
set tempo
stop
Author
Difficulty
SONG: Powerslave
ALBUM: Powerslave
ARTIST: Iron Maiden

[Intro]: After the Drums in the Start.

e|----------------------------------------------------------[----------------|\
B|----------------------------------------------------------[----------------| \
G|----------------------------------------------------------[----------------|  \
D|----------------------------------------------------------[----------------|   \
A|--7-----(7)----(7)----(7)-10-7-----(7)----(7)----(7)-8--7-[----(7)----(7)--|    \
E|--5--5-5-5--5-5-5--5-5-5--8--5--5-5-5--5-5-5--5-5-5--6--5-[-5-5-5--5-5-5---|     \
                                                                                   x5
e|---------------[-----------------------------------------------------------|     /
B|---------------[-----------------------------------------------------------|    /
G|---------------[-----------------------------------------------------------|   /
D|---------------[-----------------------------------------------------------|  /
A|-(7)----(7)-10-[----5-4-5-7-5h7p5-4h5p4------------------------------------| /
E|--5--5-5-5--8--[--5--------------------------------------------------------|/

[Pre-Chorus]

e|-----------[--------------[-------------------|\
B|-----------[--------------[-------------------| \
G|-----------[--------------[-------------------|  \ ...
D|--9-----5--[-----------6--[--9---------5------|  / etc etc... (4 times in total)
A|--7-----3--[--6--------4--[--7---------3------| /
E|--0--------[--4-----------[--0----------------|/

[Chorus]

e|--------[--------------[----------------------------[----------------------------------|
B|--------[--------------[----------------------------[----------------------------------|
G|--9-----[---5------7---[----------------------------[----------------------------------| x4
D|--9-----[---5------7---[----------------------------[----------------------------------|   Times
A|--7-----[---3------5---[----------------------------[----------------------------------|
E|--------[--------------[-3p0-0-0-0-0-0-0-3p0-0-0-0-0[-0h2-2-2-2h3-3-3-3h5-5-5-5-3-2-0--|

[Verse]

e|----------------------------------------------------------[----------------|\
B|----------------------------------------------------------[----------------| \
G|----------------------------------------------------------[----------------|  \
D|----------------------------------------------------------[----------------|   \
A|--7-----(7)----(7)----(7)-10-7-----(7)----(7)----(7)-8--7-[----(7)----(7)--|    \
E|--5--5-5-5--5-5-5--5-5-5--8--5--5-5-5--5-5-5--5-5-5--6--5-[-5-5-5--5-5-5---|     \
                                                                                   x5
e|---------------[-----------------------------------------------------------|     /
B|---------------[-----------------------------------------------------------|    /
G|---------------[-----------------------------------------------------------|   /
D|---------------[-----------------------------------------------------------|  /
A|-(7)----(7)-10-[----5-4-5-7-5h7p5-4h5p4------------------------------------| /
E|--5--5-5-5--8--[--5--------------------------------------------------------|/

[Pre-Chorus]

e|-----------[--------------[-------------------|\
B|-----------[--------------[-------------------| \
G|-----------[--------------[-------------------|  \ ...
D|--9-----5--[-----------6--[--9---------5------|  / etc etc... (4 times in total)
A|--7-----3--[--6--------4--[--7---------3------| /
E|--0--------[--4-----------[--0----------------|/

[Chorus]

e|--------[--------------[----------------------------[----------------------------------|
B|--------[--------------[----------------------------[----------------------------------|
G|--9-----[---5------7---[----------------------------[----------------------------------| x4
D|--9-----[---5------7---[----------------------------[----------------------------------|   Times
A|--7-----[---3------5---[----------------------------[----------------------------------|
E|--------[--------------[-3p0-0-0-0-0-0-0-3p0-0-0-0-0[-0h2-2-2-2h3-3-3-3h5-5-5-5-3-2-0--|

e|--0----|
B|--0----|
G|--0----|
D|--2----|
A|--2----|
E|--0----|

[SOLO I]
[RYTHM]

e|---[R    [---------------------|
B|---[E    [----3---3---3--------|
G|---[P X  [-----4---4---4-------|
D|---[E    [---4---4---4---------|
A|--0[A 2  [-2----2---2----0-----|
E|-0-[T    [---------------------|

e|------------|\
B|----3---3---| \
G|-----4---4--|  REPEAT
D|---4---4----|  13 TIMES  (THE SOLO OF THE OTHER GUITAR STARTS AT THE 4TH ONE)
A|--2---2-----| /
E|------------|/

e|-------------------------------|
B|---3---3----3---3---3----------|
G|----4---4----4---4---4--4---4--| REPEAT
D|--4---4----4---4---4--0--------| X3
A|-0---0--------------------0----|
E|----------3---3---3------------|

e|---------------------------------------------------------------------------|
B|---3---3---3---3-----------------------------------------------------------|
G|----4---4---4---4----------------------------------------------------------|
D|--4---4---4---4------------------------------------------------------------|
A|-2---2---0---0----5--5--5--5--5--5--5--5--5--5--5--5--7--5--X--------------|
E|------------------3--3--3--3--3--3--3--3--3--3--3--3--5--3--X--------------|

[REAL SOLO]

e|-------------------------------------------------------------------------------------------------------|
B|-7--5h7p5--3h2--3h2--2h3p2-----------------------------------------------10b--10h12p10--7h10p7-9-7h9p7-|
G|----------------------------4\2--4-6-7--9--9br-7--6h7p6----------7-9br-7-------------------------------|
D|---------------------------------------------------------9---7-9---------------------------------------|
A|-----------------------------------------------------------9-------------------------------------------|
E|-------------------------------------------------------------------------------------------------------|

e|--------------------------------10-9h10p9-----------9-10-12-10-9h10p9------------------------------|
B|-6---6\4-4----------------10-12------------12-10-12-------------------10---------------------------|
G|---9---------------7-9/11------------------------------------------------9\7-9br-7h9p7-6h7p6--4----|
D|---------------7-9---------------------------------------------------------------------------------|
A|-----------7-9-------------------------------------------------------------------------------------|
E|---------------------------------------------------------------------------------------------------|

e|--------------------10-9h10p9-----12b-(12br)-12h10-9h10p9--------------------------------------------|
B|--------------10-12----------12-10------------------------12------------14-15-17-15-14h15p14---------|
G|-------7-9-11-----------------------------------------------------14-16----------------------16------|
D|---7-9-------------------------------------------------------14-16-----------------------------------|
A|--9--------------------------------------------------------------------------------------------------|
E|-----------------------------------------------------------------------------------------------------|

e|------------------------------14-15-17-17b-17b-17br-17--15-14h15p14----14-15-17-15-14h15p14---------|
B|--15-14h15p14--------14-15-17---------------------------------------17----------------------17------|
G|-------------16-14-16-------------------------------------------------------------------------------|
D|----------------------------------------------------------------------------------------------------|
A|----------------------------------------------------------------------------------------------------|
E|----------------------------------------------------------------------------------------------------|

e|--14h15p14--------------------------------------------------7--------7-------------------------|
B|----------17-15-14h15p14-----------------------------------x--10---7---10h7--------------------|
G|------------------------16-14-----------------------------x------9----------9h7-9-7------------|
D|------------------------------16-15-14-12-14-12-14-12----x--------------------------9-7-9------|
A|------------------------------------------------------14---------------------------------------|
E|-----------------------------------------------------------------------------------------------|

THERE ARE 2 MORE SOLOS, I'LL TAB IT IN A DIFFERENT SOLO TAB

[INTERLUDE]

e|----------------------------------------------------------------------------------------------------|
B|----------------------------------------------------------------------------------------------------|
G|----------------------------------------------------------------------------------------------------|
D|----------2-------------2-----5-4---4--5--4h5p4-----------2-------------2-------------2-------------|
A|-2----4-5---5-4---2-4-5---5-4-----7-------------7-4-5-4-5---5-4---2-4-5---5-4---2-4-5---------------|
E|----------------5-----------------------------------------------5-------------5---------------------|

e|---------------------------------------------------------------------------|
B|---------------------------------------------------------------------------|
G|---------------------------------------------------------------------------|
D|------5--4---4-5-4h5p4------------2----------------------------------------|
A|-5-5-------7-----------7-4-5--4-5---5-4------------------------------------|
E|----------------------------------------5-2--------------------------------|

[VERSE]

e|----------------------------------------------------------[----------------|\
B|----------------------------------------------------------[----------------| \
G|----------------------------------------------------------[----------------|  \
D|----------------------------------------------------------[----------------|   \
A|--7-----(7)----(7)----(7)-10-7-----(7)----(7)----(7)-8--7-[----(7)----(7)--|    \
E|--5--5-5-5--5-5-5--5-5-5--8--5--5-5-5--5-5-5--5-5-5--6--5-[-5-5-5--5-5-5---|     \
                                                                                   x5
e|---------------[-----------------------------------------------------------|     /
B|---------------[-----------------------------------------------------------|    /
G|---------------[-----------------------------------------------------------|   /
D|---------------[-----------------------------------------------------------|  /
A|-(7)----(7)-10-[----5-4-5-7-5h7p5-4h5p4------------------------------------| /
E|--5--5-5-5--8--[--5--------------------------------------------------------|/

e|---------------------------------------------------------------------------|
B|-5---13---9/10\9--6--------------------------------------------------------|
G|-x---x----x--x-x--x--------------------------------------------------------| X4
D|-2---10---6/7\6---3--------------------------------------------------------|
A|---------------------------------------------------------------------------|
E|---------------------------------------------------------------------------|

[CHORUS]
SAME THAT LAST ONE BUT IT ENDS WITH THIS AFTER THE CHORUS

e|---------------------------------------------------------------------------|
B|---------------------------------------------------------------------------|
G|-5---7--7--7--9------------------------------------------------------------|
D|-5---7--7--7--9------------------------------------------------------------|
A|-3---5--5--5--7------------------------------------------------------------|
E|---------------------------------------------------------------------------|





[Outro]

e|---------------------------------------------------------------------------|
B|---------------------------------------------------------------------------|
G|----------------------------9----10--9---10--13\10-13----14---17-----------|
D|-------------------3-------------------------------------------------------|
A|-------------------3--------7----8---7---8---11\8--11----12---15-----------|
E|--5--4--5--7--5--4\1-------------------------------------------------------|

e|---------------------------------------------------------------------------|
B|---------------------------------------------------------------------------|
G|--16/17\16---13/14\13---10--13--10\9---------------------------------------|
D|---------------------------------------------------------------------------|
A|--14/15\14---12/14\13---8---11--8\\7----7----------------------------------|
E|---------------------------------------------------------------------------|


************************************

| x   Dead note
| g   Grace note
| (n) Ghost note
| h   Hammer-on
| p   Pull-off
| r   Release
| >   Accented note
| t   Tapping
| b   Bend
| br  Bend release
| pb  Pre-bend
| pbr Pre-bend release
| /   Slide up
| \   Slide down
| ~   Vibrato
| s   Slap
| P   Pop
| PM  Palm mute
| TR  Trill
| N   Tremolo

************************************

            
            
Suggest correction
Creating personal tab
Creating personal tab
You can edit any tab online and save it as your Personal.

You can edit, replace or remove any tab part or add personal notes – all changes will be seen only by you.

Personal tabs can be accessed anytime from any device, even offline.
Learn more »
Give kudos to tab author, rate the tab!
1 2 3 4 5
comments
print report bad tab
guest
You may want to rate the tab now too:
select rating
Wanna post a correction for this tab? Suggest correction