Oops, an error
Loading. Please wait.

Revelations bass

version 2
version 2
9,674 views 3 this week
10 commentsread comments
1 2 3 4 5
x 18
add to favorites
×
Save as Personal and add changes to this tab that will be seen only by you. Learn more ›
×
You can save this tab as Personal to edit and correct it or add notes. All changes will be seen only by you. Learn more »
launch autoscroll
font size
0
reset
guitar tuner
backing track
0:00
0:00
edit
Autoscroll
slow
fast
+/-
esc
set tempo
stop
Author
-------------------------------------------------------------------------------
			   REVELATIONS - Iron maiden
-------------------------------------------------------------------------------



-INTRO
G|-----------------------|
D|-----------35----------|
A|----------3--3---3-5---|
E|3-5-3-5----------------|


 -PRE-VERSE 1 & 4
Basically, this is the verse while theres no singing
G|-----------------|
D|-----------------|
A|-----------------|
E|55--11--33--55--3|


 -VERSE 1 & 4
'Oh, God of earth and altar...'
G|--------------------|-----|
D|--------------------|-----|
A|---3----3----3------|5-3--|
E|55---11---33---55--3|----5|
    Play after last time^^^


 -VERSE 2 & 3
'Just a babe in a black abyss...'
G|-------------------|-------------5754--|
D|-------------------|--------575--------|
A|---578--785----5---|---578------------7|
E|5----------8--8-873|5------------------|


 -AFTER
G|------------------------|
D|------------------------|
A|------------------5-----|
E|5-3-5---5-3-5---3----1-3|

G|----------------------------|
D|----------------------------|
A|---------------------55-----|
E|5355555-535555555-33----11-3|


 -CHORUS
'The light of the blind...'
G|-------------------------|
D|-------------------------|
A|--------3-5-353----------|
E|55-3-55--------53-11---33|


 -SOLO
G|-----------------------------|
D|-----------------------------|
A|----------------------5-3-2--|
E|5-3-55555-5-3-5555555-------5|

Or, if you want to copy the guitar, you can play...
G|----------------------------|
D|----------------------------|
A|7-5-77777-8755555555-5------|
E|-----------------------8-7-5|


 -AFTER SOLO
G|----------------|------------20--|
D|----------------|--------3-5---2-|
A|----3-5-----3---|----3-5--------3|
E|5-3-----1-3--535|5-3-------------|


 -ENDING
Play this bar instead of "Verse 1 & 4" for the second bar.
Small diference you'll notice if you miss it. 
G|-------------------|
D|-------------------|
A|---3----3----5-----|
E|55---11---33---55-3|

Last few notes
G|-----2----|
D|----2-----|
A|---------0|
E|5-------0-|

END


            
            
Suggest correction
Creating personal tab
Creating personal tab
You can edit any tab online and save it as your Personal.

You can edit, replace or remove any tab part or add personal notes – all changes will be seen only by you.

Personal tabs can be accessed anytime from any device, even offline.
Learn more »
comments
print report bad tab
10 comments total. Showing first comments.
0 reply
decky123 31 Aug 23, 2007 01:29 PM

class song (Y) tab...4 starts :\

+2 reply
heavyinmind 133 Jun 04, 2008 01:41 PM

the intro is wrong!!!!

+1 reply
Jon777 342 May 31, 2009 10:27 AM

awesome tab, the only mistake is probably the intro

guest
You may want to rate the tab now too:
select rating
Wanna post a correction for this tab? Suggest correction