Oops, an error
Loading. Please wait.

Shadows Of The Valley tab

version 2
version 2

Whole song

Interactive

106 views 1 this week
no commentswrite comment
1 2 3 4 5
2 more votes to show rating
add to favorites
×
Save as Personal and add changes to this tab that will be seen only by you. Learn more ›
×
You can save this tab as Personal to edit and correct it or add notes. All changes will be seen only by you. Learn more »
launch autoscroll
font size
0
reset
how to read this tab
guitar tuner
edit
Autoscroll
slow
fast
+/-
esc
set tempo
stop
Author
Difficulty
[Intro]

   E5                                                                G5  A5
e|-12-0-0-7-0-0-8-0-|-0-10-0-0-7-0-8-0-|-12-0-0-7-0-0-8-0-|-0-10-0-0-3-0-5-0-|
B|------------------|------------------|------------------|------------------|
G|------------------|------------------|------------------|------------------|
D|------------------|------------------|------------------|------------------| x4
A|------------------|------------------|------------------|------------------|
E|------------------|------------------|------------------|------------------|

[Opening Verse]

   E5                                                                G5  A5
e|-12-0-0-7-0-0-8-0-|-0-10-0-0-7-0-8-0-|-12-0-0-7-0-0-8-0-|-0-10-0-0-3-0-5-0-|
B|------------------|------------------|------------------|------------------|
G|------------------|------------------|------------------|------------------|
D|------------------|------------------|------------------|------------------|
A|------------------|------------------|------------------|------------------|
E|------------------|------------------|------------------|------------------|

   E5                                                                Bb5 A5
e|-12-0-0-7-0-0-8-0-|-0-10-0-0-7-0-8-0-|-12-0-0-7-0-0-8-0-|-0-10-0-0-3-0-5-0-|
B|------------------|------------------|------------------|------------------|
G|------------------|------------------|------------------|------------------|
D|------------------|------------------|------------------|------------------| x2
A|------------------|------------------|------------------|------------------|
E|------------------|------------------|------------------|------------------|

   E5                            G5  F#5                             C5  D5
e|-12-0-0-7-0-0-8-0-|-0-10-0-0-7-0-8-0-|-12-0-0-7-0-0-8-0-|-0-10-0-0-3-0-5---|
B|------------------|------------------|------------------|------------------|
G|------------------|------------------|------------------|------------------|
D|------------------|------------------|------------------|------------------|
A|------------------|------------------|------------------|------------------|
E|------------------|------------------|------------------|------------------|


[Verse 1]

e|---------------------|---------------------|---------------------|---------------------|
B|-----------8---------|---------------------|-----------8---------|---------------------|
G|-9---------7---------|-5---------7---------|-9---------7---------|-5-------------------|
D|-9--9--9-9-9--9--9-9-|-5--5--5-5-7--7--7-7-|-9--9--9-9-9--9--9-9-|-5--5--5-5-7---------|
A|-7--7--7-7-7--7--7-7-|-3--3--3-5-5--5--5-5-|-7--7--7-7-7--7--7-7-|-3--3--3-5-7--7--7-7-|
E|-0-------------------|---------------------|-0-------------------|-----------5--5--5-5-|
      PM---|    PM---|      PM---|    PM---|      PM---|    PM---|      PM---|    PM---|
 
e|---------------------|---------------------|---------------------|---------------------|
B|-----------8---------|---------------------|---------------------|---------------------|
G|-9---------7---------|-5---------7---------|-4---------4---------|-5---------7---------|
D|-9--9--9-9-9--9--9-9-|-5--5--5-5-7--7--7-7-|-4--4--4-4-4--4--4-4-|-5--5--5-5-7--7--7-7-|
A|-7--7--7-7-7--7--7-7-|-3--3--3-5-5--5--5-5-|-2--2--2-2-2--2--2-2-|-3--3--3-5-5--5--5-5-|
E|-0-------------------|---------------------|---------------------|---------------------|
      PM---|    PM---|      PM---|    PM---|      PM---|    PM---|      PM---|    PM---|

e|---------------------|---------------------|---------------------|---------------------|
B|-----------8---------|---------------------|-----------8---------|---------------------|
G|-9---------7---------|-5---------7---------|-9---------7---------|-5-------------------|
D|-9--9--9-9-9--9--9-9-|-5--5--5-5-7--7--7-7-|-9--9--9-9-9--9--9-9-|-5--5--5-5-7---------|
A|-7--7--7-7-7--7--7-7-|-3--3--3-5-5--5--5-5-|-7--7--7-7-7--7--7-7-|-3--3--3-5-7--7--7-7-|
E|-0-------------------|---------------------|-0-------------------|-----------5--5--5-5-|
      PM---|    PM---|      PM---|    PM---|      PM---|    PM---|      PM---|    PM---|

e|---------------------|---------------------|---------------------|---------------------|
B|-----------8---------|---------------------|-----------8---------|---------------------|
G|-9---------7---------|-5---------7---------|-9---------7---------|-5-------------------|
D|-9--9--9-9-9--9--9-9-|-5--5--5-5-7--7--7-7-|-9--9--9-9-9--9--9-9-|-5--5--5-5-7---------|
A|-7--7--7-7-7--7--7-7-|-3--3--3-5-5--5--5-5-|-7--7--7-7-7--7--7-7-|-3--3--3-5-7--7--7-7-|
E|-0-------------------|---------------------|-0-------------------|-----------5--5--5-5-|
      PM---|    PM---|      PM---|    PM---|      PM---|    PM---|      PM---|    PM---|

[Bridge 1]

e|---------------------|-------------------|     |---------------------|---------------------| 
B|---------------------|-------------------|     |---------------------|---------------------|
G|-4---------4---------|-5---------5--7--5-|     |-4---------4---------|-5---------7---------|
D|-4--4--4-4-4--4--4-4-|-5--5--5-5-5--7--5-| x3  |-4--4--4-4-4--4--4-4-|-5--5--5-5-7--7--7-7-|
A|-2--2--2-2-2--2--2-2-|-3--3--3-3-3--5--3-|     |-2--2--2-2-2--2--2-2-|-3--3--3-3-5--5--5-5-|
E|---------------------|-------------------|     |---------------------|---------------------|
      PM---|    PM---|      PM---|                    PM---|    PM---|      PM---|    PM---|

[Chorus 1]
  
     e|-------------------------|-------------|     |---------------------|---------------------| 
     B|-------------------------|-------5____-|     |---------------------|---------------------|
     G|-9---------12------------|-----4___4__-|     |-4---------4---------|-5---------7---------|
||:  D|-9--9--9-9-12--12--12-12-|---5_______5-| x3  |-4--4--4-4-4--4--4-4-|-5--5--5-5-7--7--7-7-| :||
     A|-7--7--7-7-10--10--10-10-|-3__________-|     |-2--2--2-2-2--2--2-2-|-3--3--3-3-5--5--5-5-|
     E|-------------------------|-------------|     |---------------------|---------------------|
           PM---|     PM------|                          PM---|    PM---|      PM---|    PM---|
[Solo 1]

Guitar 1:

   Em
e|---------------------------|---------------------------|
B|---------------------------|---------------------------|
G|-4h5p4p2-4-2---------------|-4h5p4p2-4-2---------------|
D|-------------5-2-5-2-5-2---|-------------5-2-5-2-5-----| x4
A|---------------------------|---------------------------|
E|---------------------------|---------------------------|

Guitar 2:

e|-7h8p7p5-7-5---------------|-7h8p7p5-7-5---------------|
B|-------------8-5-8-5-8-5---|-------------8-5-8-5-8-----|
G|---------------------------|---------------------------|
D|---------------------------|---------------------------| x4
A|---------------------------|---------------------------|
E|---------------------------|---------------------------|

[Verse 2]

Just like Verse 1.

[Bridge 2]

Just like Bridge 1.

[Chorus 2]

Just like Chorus 1]

[Solo 2]

There's an additional guitar part playing in the last 2 repetitions of the solo.

Guitar 3:
  
  Em
e|---------------------------|---------------------------|
B|---------------------------|---------------------------|
G|---------------------------|---------------------------|
D|---------------------------|---------------------------| x2
A|-2h3p2p0-2-0---------------|-2h3p2p0-2-0---------------|
E|-------------3-0-3-0-3-0---|-------------3-0-3-0-3-----|

And now, the main solo:

  Em             C     D        Em             C     Am
e|-------------|---------------|-------------|---------------|
B|-------------|---------------|-------------|---------------|
G|---4-5-7-5-4-|---4-5-4v------|---4-5-7-5-4-|---4-5---------|
D|-------------|-7-------------|-------------|-7-----5p4-----|
A|-------------|---------------|-------------|-----------7---|
E|-------------|---------------|-------------|---------------|

  Em             C     D        B              C     D
e|-------------|---------------|-------------|---------------|
B|-------------|---------------|-------------|---------------|
G|---4-5-7-5-4-|---4-5-4v------|---4-5-7-5-4-|-----4---------|
D|-------------|-7-------------|-------------|-5-7---5p4-----|                     The bend from 10 to 12 is
A|-------------|---------------|-------------|-----------7---|                     actually played by another
E|-------------|---------------|-------------|---------------|                     guitar.
  Em             C      D       Em               C     Am      Em               C      D       Em   C D
e|-------------|---------------|---------------|--------------|---------------|---------------|----|----|
B|-----7-8-7---|-10-8-7-----7--|-------7-8-7---|--------------|---------------|--------10b12v-|----|----|
G|---9-------9-|--------9-7----|-9---9-------9-|-9-7----------|-------------7-|-7-------------|----|----|
D|-------------|---------------|---------------|-----9-9-7----|----7-9-9-10---|---10-9-7------|----|----|
A|-------------|---------------|---------------|-----------10-|-10------------|---------------|----|----|
E|-------------|---------------|---------------|--------------|---------------|---------------|----|----|

[Bridge 3]

Just like Bridge 1.

[Chorus 3]

Just like Chorus 1.

[Solo 3]

Begins with the 3 guitar theme played just like in Solo 2. Then:

Use a flanger effect on this one.

  G/B    C       D      Em    Am           G        D/F#        Em    G/B        C         D     Em   
e|-----------------10b12-----|-------12-14-15-17-15-17b19-17p15p14--|----------------------------10---|
B|-10b12Nr10-8---8-----------|-15b17--------------------------------|-10b12-10-8-7-8-7h8p7---7-8------|
G|-------------9-------------|--------------------------------------|----------------------9----------|
D|---------------------------|--------------------------------------|---------------------------------|
A|---------------------------|--------------------------------------|---------------------------------|
E|---------------------------|--------------------------------------|---------------------------------|

  Am           G              D/F#     G     G/B         C           D     Em 
e|------------------------------------------|---------------------------------|
B|-15b17-15-13-12-13-12h13p12----12-13-12---|-10b12-10-8-7-8-7h8p7---7--------|
G|----------------------------14------------|----------------------9---9-7-9--|
D|------------------------------------------|---------------------------------|
A|------------------------------------------|---------------------------------|
E|------------------------------------------|---------------------------------|

  Am           G              Em       D    G/B          C        D           Em 
e|-----------------------------------------|-15b17-15-14-12-14-15-15b17-15-17-17b19--|
B|-15b17-15-13-12-13-12h13p12----12-13-15--|-----------------------------------------|
G|----------------------------14-----------|-----------------------------------------|
D|-----------------------------------------|-----------------------------------------|
A|-----------------------------------------|-----------------------------------------|
E|-----------------------------------------|-----------------------------------------|

  Am        G        D/F#     Em
e|----------17----17-19-17-19-20b22--|
B|-17-19-20----20--------------------|
G|-----------------------------------|
D|-----------------------------------|
A|-----------------------------------|
E|-----------------------------------|         

[Solo 4]                                       The G (15) is played by the guitar of the next solo,
                                                                     And only in the second repeat.
  Em           G             C             Am  D
e|--------------------------|-7----------------15------|
B|-------7-8-7-10-8-7---7-8-|---10-8-7-8-7-8p7---------|
G|-9-7-9--------------9-----|------------------9-7-----|
D|--------------------------|--------------------------| x2   This part also serves as the 
A|--------------------------|--------------------------|      rhythm for the next solo.
E|--------------------------|--------------------------|

[Solo 5]

e|-15v--14-12-------------------------|-----------------------------14------------|
B|------------15-12-------------------|--------------------------15---------------|
G|------------------14----------14p12-|-----------12-14s16p14-16-------14p12------|
D|---------------------14h16h17-------|-14v-12h14---------------------------------|
A|------------------------------------|--------------------------------------14v--|
E|------------------------------------|-------------------------------------------|

e|----------------------------------------------------|------------------------------------------|
B|-----------------------------12--------------15p12\-|------------------------------------------|
G|------------12----14v--12--------12--------12-------|------------------------------------------|
D|------12h14----14---------14--------14---14---------|-7---5---5v---7b8r7-5h7--5h7--------------|
A|---14----------------------------------14-----------|---7---7----------------------------------|
E|----------------------------------------------------|-----------------------------(pick slide)-|

e|----------12h17p12h15h12----12-----------|-------10-12p10--------------------------------------------|
B|----12h15----------------15----15-12-15v-|-10h12----------12-10p12p10------10v--------8-------8b10r8-|
G|-----------------------------------------|----------------------------12-9------7h9p7---9p7----------|
D|-----------------------------------------|--------------------------------------------------9--------|
A|-----------------------------------------|-----------------------------------------------------------|
E|-----------------------------------------|-----------------------------------------------------------|

e|---12p10---------------------------------------|-----------------------------|
B|---------12-10h12p10------10--------8-------8v-|-------8-----------8-7-8-7b8-|
G|---------------------12-9-----7h9p7---9p7------|-9p7h9---9p7---9v------------|
D|------------------------------------------9----|-------------9---------------|
A|-----------------------------------------------|-----------------------------|
E|-----------------------------------------------|-----------------------------|

[C-Part]

  Em       G       C       Am     Em       G       C        D
e|-------------------------------|-----------------7------------|
B|-8--7--------------------------|-8--7-------7--8----10--8-10--|
G|-------9-9--7----------7-------|-------9-9--------------------|
D|---------------9-9--7----9--7--|------------------------------|
A|-------------------------------|------------------------------| x4
E|-------------------------------|------------------------------|

[Solo 6]

Use a wah pedal on this one.

e|-12b14v--pb15r12--10------------------|-------------------------------|
B|---------------------13-12-10h12p10---|-------------------------------|
G|------------------------------------9-|----9p7---7--------------------|
D|--------------------------------------|--------9----9p7-------------7-|
A|--------------------------------------|-----------------9-7b8r7-5p7---|
E|--------------------------------------|-------------------------------|

e|---------------------------------------------------|
B|-10b12N--12-12h14b15r14-12h14b15r14-12b15r12-------|
G|---------------------------------------------14-11-|
D|---------------------------------------------------|
A|---------------------------------------------------|
E|---------------------------------------------------|

e|----------------------------------------------------------------14------------|
B|-------------------------------------------14h15p14----14h15h17----17b19r17---|
G|-14b16r14----------------------------14-16----------16------------------------|
D|----------15p14p12-14b16r14-12-14s16------------------------------------------|
A|------------------------------------------------------------------------------|
E|------------------------------------------------------------------------------|

[Chorus 4]

Just like chorus 1.

[Outro]

Just like Bridge 1, but with the addition of:

Guitar 3: (from round 3 and on)

e|---------------------------|---------------------------|
B|-7h8p7p5-7-5---------------|-7h8p7p5-7-5---------------|
G|-------------7-4-7-4-7-4---|-------------7-4-7-4-7-----|
D|---------------------------|---------------------------| x2
A|---------------------------|---------------------------|
E|---------------------------|---------------------------|

Guitar 4: (only on round 4)

e|-------------------------|-------------------------|
B|-------------------------|-------------------------|
G|-------------------------|-------------------------|
D|-------------------------|-------------------------|
A|-------------------------|-------------------------|
E|-0-2-3-5-3-2-0-2-3-5-3-2-|-0-2-3-5-3-2-0-2-3-0-----|

Now I'm gonna take a good nap because I'm tired of tabbing it out.
Hope you enjoyed it though!

************************************

| x   Dead note
| g   Grace note
| (n) Ghost note
| h   Hammer-on
| p   Pull-off
| r   Release
| >   Accented note
| t   Tapping
| b   Bend
| br  Bend release
| pb  Pre-bend
| pbr Pre-bend release
| /   Slide up
| \   Slide down
| ~   Vibrato
| s   Slap
| P   Pop
| PM  Palm mute
| TR  Trill
| N   Tremolo

************************************

            
            
Suggest correction
Creating personal tab
Creating personal tab
You can edit any tab online and save it as your Personal.

You can edit, replace or remove any tab part or add personal notes – all changes will be seen only by you.

Personal tabs can be accessed anytime from any device, even offline.
Learn more »
Give kudos to tab author, rate the tab!
1 2 3 4 5
comments
print report bad tab
guest
You may want to rate the tab now too:
select rating
Wanna post a correction for this tab? Suggest correction