Oops, an error
Loading. Please wait.

Sign Of The Cross Bass Tab

version 2
version 2

Whole song

Interactive

1,521 views 18 this week
no commentswrite comment
1 2 3 4 5
excellent!
x 3
add to favorites
launch autoscroll
font size
0
reset
guitar tuner
Tab Pro tools
  • play this tab
  • loop segment
  • change instrument
  • show fretboard
  • metronome
×
Best way to learn
"Sign Of The Cross"
Autoscroll
slow
fast
+/-
esc
set tempo
stop
Contributor
Difficulty
intermediate
Title: Sign Of The Cross
Artist: Iron Maiden
Album: X-Factor
Composer: Steve Harris
Tabbed By: FLBatista



INTRO:

G|------------------------------------7-----------------------------------------------|
D|---7-9-10-9--7-9-10-9---7-9-10-9-10---10-9---7-9-10-9--7-9-10-9---------------------|
A|-----------------------------------------------------------------7-9-10--9-10--9-10-|
E|-0~-------------------0~-------------------0~------------------0~-------------------|

G|------------------------------------7------------------------------------------------|
D|---7-9-10-9--7-9-10-9---7-9-10-9-10---10-9---7-9-10-9-7-9-10-9-----------------------|
A|------------------------------------------------------------------7-9-10--9-10--9-7--|
E|-0~-------------------0~-------------------0~-------------------0~-------------------|


INTRO 2(3X):

G|-----------------------------------------------------------------|
D|------------------------4-5-4------------------------------------|
A|----7-7-7-7--7-7-7-7--7-------5/7----7-7-7-7--7-7-7-7--7/5-4-----|
E|-0--------------------------------0--------------------------5/7-|

G|-----------------------------------5-----------------7--------------|
D|-------------------------4-5-4-----5-----------------7--------------|
A|-----7-7-7-7--7-7-7-7--7-------5-0-3--3-3-3-3--3-3-3-5--5-5-5-5--0--|
E|--0-----------------------------------------------------------------|


VERSE 1(2X):

G|-9-----------------------7---------|
D|-9-----------------------7---------|
A|-7-777-777-777-777-777-775-555-5-5-|
E|-----------------------------------|


VERSE 2:

G|-4-------5-------7-------9-------4-------5-------7-------9-9-7-7--|
D|-4-------5-------7-------9-------4-------5-------7-------9-9-7-7--|
A|-2-222-223-333-335-555-557-777-7-2-222-223-333-335-555-5-7-7-5-5--|
E|------------------------------------------------------------------|


PLAY:
- VERSE 1
- VERSE 2


PRE-CHORUS:

G|-9---------------------------------|X2
D|-9---------------------------------|
A|-7--777-777-777-777-777-777-777-77-|
E|-----------------------------------|

G|-5-----------------------5---7---9-----------------------------|
D|-5-----------------------5---7---9-----------------------------|
A|-3-333-333-333-333-333-333-3-5-5-7-777-777-777-777-777-777-777-|
E|---------------------------------------------------------------|


CHORUS:

G|-5-------------------------------7-------------------------------5-----------------|
D|-5-------------------------------7---------------7---------------5-----------------|
A|-3-333-333-333-3-----------------5-555-555-555-5-7---------------3-333-333-333-33--|
E|-----------------3-333-333-333-3-----------------5-555-555-555-55------------------|

G|-----------------9---------------------------------|
D|-----------------9---------------------------------|
A|-----------------7-777-777-777-777-777-777-777-77--|
E|-3-333-333-333-33----------------------------------|


PLAY:
-PRE-CHORUS
-CHORUS


RIFF 1:

G|----------------------------------------------------------------------|X2
D|----9-9-9-7-9-9-9----9-9-9-7-9-9-9----9-9-9-7-9-9-9-10-10-9-9-7-7-9-9-|
A|-7----------------7----------------7----------------------------------|
E|----------------------------------------------------------------------|

G|--------------------------------------------------------------------|
D|----7-7-7-5-7-7-7----7-7-7-5-7-7-7----7-7-7-5-7-7-7-9-9-7-7-5-5-7-7-|
A|-5----------------5----------------5--------------------------------|
E|--------------------------------------------------------------------|

G|----------------------------------------------------------------------|
D|----9-9-9-7-9-9-9----9-9-9-7-9-9-9----9-9-9-7-9-9-9-10-10-9-9-7-7-9-9-|
A|-7----------------7----------------7----------------------------------|
E|----------------------------------------------------------------------|


CHORDS:

G|-9-------------------------------5---------------------------------|
D|-9-------------------------------5---------------------------------|
A|-7-777-777-777-777-777-777-555-333-333-333-333-333-333-333-555-77--|
E|-------------------------------------------------------------------|

G|-9-------------------------------5---------------------------------|
D|-9-------------------------------5---------------------------------|
A|-7-777-777-777-777-777-777-555-333-333-333-333-333-333-333-222-00--|
E|-------------------------------------------------------------------|

G|-2-------------------------------9----------------------------------|
D|-2-------------------------------9----------------------------------|
A|-0-000-000-000-000-000-333-555-777-777-777-777-777-777-777-777---7~-|
E|-----------------------------------------------------------------0~-|


GREGORIAN CHANTS:

G|--16--16-15~----16--16--15-14~----16--16-15~----16--16--15-14~----14--14-13~-|
D|14--14~-------14--14--14~-------14--14~-------14--14--14~-------12--12~------|
A|-----------------------------------------------------------------------------|
E|-----------------------------------------------------------------------------|

G---14--14--13-12~----16--16-15~----16--16--15-14~-|
D-12--12--12~-------14--14~-------14--14--14~------|
A--------------------------------------------------|
E--------------------------------------------------|


RIFF 2(2X):

G|---------------------------------------------------------------------------|
D|--99-8------------99-8-7--------------------99-8--------------------99-8-7-|
A|-7--7--777-777-777--7-7--777-777-777-777-777--7--777-777-777-777-777--7-7--|
E|---------------------------------------------------------------------------|

G-------------------------------------------------------------------|
D--------------------77-6------------77-6-5--------------------99-8-|
A-777-777-777-777-7\5--5--555-555-555--5-5--555-555-555-555-5/7--7--|
E-------------------------------------------------------------------|

G----------------------------------------------|
D--------------------99-8-7--------------------|
A-777-777-777-777-777--7-7--777-777-777-777-77-|
E----------------------------------------------|


RIFF 3(2X):

G|------------------------------------------------------------|
D|--9------10------7------9------9------10------7------9------|
A|-7--7-7-7---7-7-7--7-7-7--7-7-7--7-7-7---7-7-7--7-7-7--7-7--|
E|------------------------------------------------------------|


G|----------------------------------------------------------|
D|--7------8------5------7------7------8------5------7------|
A|-5--5-5-5--5-5-5--5-5-5--5-875--5-5-5--5-5-5--5-5-5--5-5--|
E|----------------------------------------------------------|


FAST RIFF(4X):

G|-------------------------------------------------------------------|
D|-------------------------------------------------------------------|
A|-7--10-10-9-9-7--10-10-9-9-7--10-10-9-9-7--10-10-9-9-10-10---------|
E|-----------------------------------------------------------8-8-10--|


RIFF 4(2X):

G|-9-------7-------5-------------9-------7-------2---------------|
D|-9-------7-------5--------5-5--9-------7-------2---------------|
A|-7-7(6X)-5-5(6X)-3-3(8X)-5-5--57-7(6X)-5-5(6X)-0-0(6X)-3333555-|
E|---------------------------------------------------------------|


DURING THE FIRST SOLO (2X):

G|-9-------7-------5----------------9-------7------2---------------|
D|-9-------7-------5----------------9-------7------2---------------|
A|-7-7(6X)-5-5(6X)-3-3(6X)-----5-55-7-7(6X)-5-5(6X)0-0(6X)-3333555-|
E|-------------------------3-33------------------------------------|


DURING THE SECOND SOLO (2X):

G|-7-------5-------7----------------7------5-------7----------------|
D|-5-5(x6)-3-3(x6)-7------------3-3-5-(x6)-3-3(x6)-7-------3-333----|
A|-----------------5-5(x6)-3-333-------------------5-5(x6)------3-3-|
E|------------------------------------------------------------------|

G|-7-------5-------7----------------7------5-------7----------------|
D|-5-5(x6)-3-3(x6)-7------------3-3-5-(x6)-3-3(x6)-7-------3-333555-|
A|-----------------5-5(x6)-3-333-------------------5-5(x6)----------|
E|------------------------------------------------------------------|


PLAY: 
RIFF 4


RIFF 5:

G|-9---------------5-------------------------------7---------------|X8
D|-9---------------5-------------------------------7---------------|
A|-7-777-777-777-7-3-333-333-333-3-----------------5-555-553-3-5-5-|
E|---------------------------------3-333-333-333-3-----------------|


CHORUS 2:

G|-------------------------------|
D|-------------------------------|
A|-7(8X)-3(8X)-------5(8X)-0(8X)-|
E|-------------3(8X)-------------|


CHORUS 3:

G|-----5---5---5---------------------------7---7-----------------------|
D|---5---5---5---5------5---5---5--------7---7---7----------7---7---7--|
A|-3------------------5---5---5---5----5-----------5h7----7---7---7----|
E|------------------3-----------------------------------5--------------|

G|-----5---5---5------------------------9~----|
D|---5---5---5---5-----5---5---5------9---9~--|
A|-3-----------------5---5---5---5--7---------|
E|-----------------3--------------------------|


FINAL:

G|------------------------------------7------------------------------------------------|
D|---7-9-10-9--7-9-10-9---7-9-10-9-10---10-9---7-9-10-9-7-9-10-9-----------------------|
A|------------------------------------------------------------------7-9-10--9-10--9-7--|
E|-0~-------------------0~-------------------0~-------------------0~-------------------|


CAPTIONS:

~ : Let Ring
/ : Slide Up
\ : Slide Down
h : Hammer On
p : Pull Off
comments
We did not receive enough feedback on this tab! Please rate:
print report bad tab
1 2 3 4 5
I want to post or [tab]
guest
You may want to rate the tab now too:
select rating
Please do not post tabs as comments. Select "correction" instead!