Oops, an error
Loading. Please wait.

Sign Of The Cross tab

version 4
version 4
10,462 views 9 this week
no commentswrite comment
1 2 3 4 5
x 3
add to favorites
×
Save as Personal and add changes to this tab that will be seen only by you. Learn more ›
×
You can save this tab as Personal to edit and correct it or add notes. All changes will be seen only by you. Learn more »
launch autoscroll
font size
0
reset
how to read this tab
guitar tuner
backing track
0:00
0:00
edit
Autoscroll
slow
fast
+/-
esc
set tempo
stop
                                SIGN OF THE CROSS
                           As recorded by Iron Maiden
                       (From the 1995 Album THE X FACTOR)

Words and Music by Steve Harris

         Csus2                Dsus2                Esus2                 E5
      3 3 5 5 3 3          5 5 7 7 5 5          7 7 9 9 7 7          x 7 9 x x x

          D5                   C5                   A5                   G5
      x 5 7 x x x          x 3 5 x x x          x 0 2 x x x          3 5 5 x x x

          G5X                  F5                 C5VIII
     x 10 12 x x x        x 8 10 x x x         8 10 x x x x

Gtr I (E A D G B E) - 'Clean Guitar'
Gtr II (E A D G B E) - 'Synth Sounds'
Gtr III (E A D G B E) - 'Clean II'
Gtr IV (E A D G B E) - 'Rythm I'
Gtr V (E A D G B E) - 'Rythm II'
Gtr VI (E A D G B E) - 'Solo'

 Intro
  Slowly Q=60
  N.C.         (E5)
 4/4
               Gtr I
  W             E  S S E S S S S E Q    +E  S S E S S E. S Q
|----------||-------------------------|------------------------|
|----------||o------------------------|---------------3--------|
|----------||------2-4-5-4---2-4-5-4--|-(4)-2-4-5-4-5----5-4---|
|----------||--(5)--------------------|------------------------|
|----------||o------------------------|------------------------|
|----------||---0---------------------|--0---------------------|
                W                        W


                          1.                       2.          H.=H
  +E  S S E S S S S E Q    +E  S S E. S E. S Q      E S S E. S E. S Q
|------------------------|-----------------------||--------------------|
|------------------------|----------------------o||--------------------|
|-(4)-2-4-5-4---2-4-5-4--|-(4)-------------------||--------------------|
|------------------------|-----2-4-5--4-5--4-5---||---2-4-5--4-5--4-2--|
|------------------------|----------------------o||--------------------|
|--0---------------------|--0--------------------||-0------------------|
   W                        W                       W


 Interlude I
  Slower Q=55
  Em7
  Gtr III
  W                                                  W
  Gtr II
                                                            |------3------|
  H                               +E   S S E. S      E     +E             S        H     +E  S S
|-----------------------------------------------|------------------------------------------------|
|-----------------------------------------------|------------------------------------------------|
|---------------------------------------------2-|------------------------------------------------|
|-5-------------------------------(5)--2-4-5----|----5-----(5)------------4--------2-----(2)-2-4-|
|-----------------------------------------------|------------------------------------------------|
|-----------------------------------------------|------------------------------------------------|
|
| Gtr I
| E.   T    T    T    T    +E.    +H                +E     +T     T    T      T    H.
|-----------------------------------------------|------------------------------------------------|
|-------------------<12>-(<12>)-(<12>)----------|-(<12>)-(<12>)------------------<12>------------|
|--------------<12>-----------------------------|---------------------------<12>-----------------|
|---------<12>----------------------------------|--------------------<12>------------------------|
|----<12>---------------------------------------|---------------<12>-----------------------------|
|-----------------------------------------------|------------------------------------------------|


                                                       Csus2        Dsus2
     W                                                 Q.         E Q.   E
                                                       |            |
                                                       /            /

                                                           |3-|
     H                                +E   S S E S S   E  +E  S Q   H
|----------------------------------------------------|-----------------------||
|----------------------------------------------------|-----------------------||
|--------------------------------------------------2-|-----------------------||
|----5--------------------------------(5)--2-4-5-5---|-5--(5)-4-2---0--------||
|----------------------------------------------------|-----------------------||
|----------------------------------------------------|-----------------------||
|
|   +E.    T    T    T    T    +E.    +H               W
|----------------------------------------------------|-----------------------||
|-(<12>)----------------<12>-(<12>)-(<12>)-----------|-----------------------||
|------------------<12>------------------------------|-----------------------||
|-------------<12>-----------------------------------|-----------------------||
|--------<12>----------------------------------------|-----------------------||
|----------------------------------------------------|-----------------------||


    Esus2
      H.                                   +E  E       W
      |                                     |
      /                                     /

                                                            |-----3------|
      H                            +E  S S  E.   S     E   +E            S        H     +E  S S
||-------------------------------------------------|--------------------------------------------|
||o------------------------------------------------|--------------------------------------------|
||-----------------------------------------------2-|--------------------------------------------|
||----5----------------------------(5)-2-4--5------|---5---(5)-----------4--------2-----(2)-2-4-|
||o------------------------------------------------|--------------------------------------------|
||-------------------------------------------------|--------------------------------------------|
|
|     E    T    T    T    T    H.                      E    T    T    T      T    H.
||-------------------------------------------------|--------------------------------------------|
||o--------------------------<12>------------------|----------------------------<12>------------|
||----------------------<12>-----------------------|-----------------------<12>-----------------|
||-----------------<12>----------------------------|----------------<12>------------------------|
||o-----------<12>---------------------------------|-----------<12>-----------------------------|
||--<12>-<12>--------------------------------------|-<12>-<12>----------------------------------|


                                                          Csus2        Dsus2
    W                                                     Q.         E Q.   E
                                                          |            |
                                                          /            /

                                                              |3-|
    H                                    +E   S S E S S   E  +E  S Q   H
|-------------------------------------------------------|------------------------||
|-------------------------------------------------------|-----------------------o||
|-----------------------------------------------------2-|------------------------||
|---5------------------------------------(5)--2-4-5-5---|-5--(5)-4-2---0---------||
|-------------------------------------------------------|-----------------------o||
|-------------------------------------------------------|------------------------||
|
|   E    S    T    T    T    T    +E.    +H               W
|-------------------------------------------------------|------------------------||
|--------------------------<12>-(<12>)-(<12>)-----------|-----------------------o||
|---------------------<12>------------------------------|------------------------||
|----------------<12>-----------------------------------|------------------------||
|-----------<12>----------------------------------------|-----------------------o||
|-<12>-<12>---------------------------------------------|------------------------||


   Verse
    Moderately Q=100
    E5
    Gtrs IV, V
    PM---------------------------
    E S S E S S S S S S S S S S
||------------------------------|
||o-----------------------------|
||------------------------------|
||--9-9-9-9-9-9-9-9-9-9-9-9-9-9-|
||o-7-7-7-7-7-7-7-7-7-7-7-7-7-7-|
||------------------------------|


                D5         E5
 -------------|   PM|      PM--------------------|
  S S S S E S S E S S Q    E S S E S S E S S E S S
|------------------------|-------------------------|
|------------------------|-------------------------|
|------------------------|-------------------------|
|-9-9-9-9-9-9-9-7-7-7-7--|-9-9-9-9-9-9-9-9-9-9-9-9-|
|-7-7-7-7-7-7-7-5-5-5-5--|-7-7-7-7-7-7-7-7-7-7-7-7-|
|------------------------|-------------------------|


              D5            B5            C5
  PM--------------|         PM-------------------------
  E S S E S S E S S E +E    E S S S S S S E S S E S S
|-------------------------|---------------------------|
|-------------------------|---------------------------|
|-------------------------|---------------------------|
|-9-9-9-9-9-9-7-7-7-7-(7)S|=4-4-4-4-4-4-4-5-5-5-5-5-5-|
|-7-7-7-7-7-7-5-5-5-5-(5)S|=2-2-2-2-2-2-2-3-3-3-3-3-3-|
|-------------------------|---------------------------|


  D5          E5
 -----------------|
  E S S E S S E S S E E
|--------------------------|
|--------------------------|
|--------------------------|
|-7-7-7-7-7-7S9-9-9-9-9S===|
|-5-5-5-5-5-5S7-7-7-7-7S===|
|--------------------------|


                         1.                        2.
  B5          C5          D5                                    E5    D5
  PM--------------------------------------|         PM--------------|
  E S S E S S E S S E E   E S S E S S E S S E E     E S S E S S E S S Q
|-----------------------|------------------------||----------------------|
|-----------------------|-----------------------o||----------------------|
|-----------------------|------------------------||----------------------|
|-4-4-4-4-4-4-5-5-5-5-5-|-7-7-7-7-7-7-9-9-9-7-7--||-7-7-7-7-7-7-9-9-9-7--|
|-2-2-2-2-2-2-3-3-3-3-3-|-5-5-5-5-5-5-7-7-7-5-5-o||-5-5-5-5-5-5-7-7-7-5--|
|-----------------------|------------------------||----------------------|


   Pre-Chorus
    E5
    Gtrs IV, V
    PM----------------------------------------------|
    E S S E S S E S S E S S   E S S E S S E S S E S S
||--------------------------|-------------------------|
||o-------------------------|-------------------------|
||--------------------------|-------------------------|
||--9-9-9-9-9-9-9-9-9-9-9-9-|-9-9-9-9-9-9-9-9-9-9-9-9-|
||o-7-7-7-7-7-7-7-7-7-7-7-7-|-7-7-7-7-7-7-7-7-7-7-7-7-|
||--------------------------|-------------------------|


  Gtrs IV, V
      PM----------------------|       PM------|     PM--|
  E   S S E S S  E    S S E S S   E   S S E S S  S  S S S E +E
|-------------------------------|---------------------------------|
|-------------------------------|---------------------------------|
|-------------------------------|---------------------------------|
|-9---9-9-9-9-9--9----9-9-9-9-9-|-9---9-9-9-9-9--9--9-9-9-9-(9)S==|
|-7---7-7-7-7-7--7----7-7-7-7-7-|-7---7-7-7-7-7--7--7-7-7-7-(7)S==|
|-------------------------------|---------------------------------|
|
| Gtr VI
|           ~~~~~~~~  ~                     ~~~~~~~~  ~
| S S S S E E   +S  S Q     S S   S S S S E E   +S  S Q     +E
|-------------------------------|---------------------------------|
|-5---5-7-8-7---(7)-------------|-5---5-7-8-7---(7)---------------|
|---4-----------------7-----4-4-|---4-----------------7-----(7)\--|
|-------------------------------|---------------------------------|
|-------------------------------|---------------------------------|
|-------------------------------|---------------------------------|


  C5                                                D5
  Gtrs IV, V
  PM----------------------------------------------|
  E S S E S S S S S S S S S S   S S S S E S S E S S E E
|-----------------------------|-------------------------|
|-----------------------------|-------------------------|
|-----------------------------|-------------------------|
|-5-5-5-5-5-5-5-5-5-5-5-5-5-5-|-5-5-5-5-5-5-5-5-5-5S7-7-|
|-3-3-3-3-3-3-3-3-3-3-3-3-3-3-|-3-3-3-3-3-3-3-3-3-3S5-5-|
|-----------------------------|-------------------------|


  E5                                                             C5
  Gtrs IV, V
      PM------------------|           PM--------|
  E   S S E S S  E    S S E S S   E   S S E S S  E    S S E  S   S
|-------------------------------|----------------------------------||
|-------------------------------|----------------------------------||
|-------------------------------|----------------------------------||
|-9---9-9-9-9-9--9----9-9-9-9-9-|-9---9-9-9-9-9--9----9-9-9--9s==5-||
|-7---7-7-7-7-7--7----7-7-7-7-7-|-7---7-7-7-7-7--7----7-7-7--7s==3-||
|-------------------------------|----------------------------------||
|
| Gtr VI
|           ~~~~~~~~  ~                     ~~~~~~~~  ~
| S S S S E E   +S  S Q     S S   S S S S E E   +S  S Q     +E
|-------------------------------|----------------------------------||
|-5---5-7-8-7---(7)-------------|-5---5-7-8-7---(7)----------------||
|---4-----------------7-----4-4-|---4-----------------7-----(7)\---||
|-------------------------------|----------------------------------||
|-------------------------------|----------------------------------||
|-------------------------------|----------------------------------||


 Chorus
                         G
  Gtrs IV, V
                              PM----------|
  Q.   S S E S S E S S   Q.   S S E S S E S S
|----------------------|----------------------|
|----------------------|-0------------------3-|
|--------------------0-|-0------------------2-|
|-5----5-5-5-5-5-5-5-0-|-0------------------0-|
|-3----3-3-3-3-3-3-3---|-x--------------------|
|----------------------|-3----3-3-3-3-3-3-3---|


  Dsus2              A5
  Gtrs IV, V
       PM------|
   Q   E S S E S S E  S S    E  S S E S S E S S  E  S S
|-------------------------|-----------------------------|
|--3-------------3-3------|-----------------------------|
|--2---2-2-2-2-2-2-2--2-2-|--2--2-2-2-2-2-2-2-2--2--x---|
|--0---0-0-0-0-0-0-2--2-2-|--2--2-2-2-2-2-2-2-2--2--x-5-|
|---------------------0-0-|--0--0-0-0-0-0-0-0-0--0--x-3-|
|-------------------------|-----------------------------|
|
| Gtr I
|  Q.    E   E E   E  E     +H.                 +E  E
|-^0---------3-2-----^0---|-(0)-----------------(0)-----|
|-^3---------------3-^x---|-(x)-----------------(1)-----|
|-^2-----------------^2---|-(2)-----------------(2)-----|
|-^0-----------------^2---|-(2)-----------------(2)-----|
|-^0----------------------|-----------------------------|
|-------------------------|-----------------------------|


  Csus2                  G5
           PM--|   PM--|
   Q   +S  S S S E S S E  S S    Q.   S S E S S E S S
|-------------------------3-3-|--3---------------------|
|-------------------------3-3-|--3---------------------|
|-------------------------0-0-|--0---------------------|
|--5---(5)-----5-5-----5--0-0-|--0----0-0-0-0-0-0-x-9--|
|--3---(3)-3-3-3-3-3-3-3--x---|--x----x-x-x-x-x-x-x-7--|
|-------------------------3-3-|--3----3-3-3-3-3-3-x----|
|
|                      PM
|  Q.        E   E E   E  E     +W
|-^3---------------0-----^3---|-(3)--------------------|
|-^3-------------6-------^3---|-(3)--------------------|
|-^5-------------------5-^0---|-(0)--------------------|
|-^5--------------------------|------------------------|
|-^3--------------------------|------------------------|
|-----------------------------|------------------------|


                           1.
  E5
  Gtrs IV, V
    PM--------------------------|   PM-----------------
  E S S E S S E S S E S S   E S S E S S E S S E S S
|-------------------------|--------------------------||
|-------------------------|-------------------------o||
|-------------------------|--------------------------||
|-9-9-9-9-9-9-9-9-9-9-9-9-|-9-9-9-9-9-9-9-9-9-9-9-9--||
|-7-7-7-7-7-7-7-7-7-7-7-7-|-7-7-7-7-7-7-7-7-7-7-7-7-o||
|-------------------------|--------------------------||


 2.
 ---------------|
  E S S E S S E S S E E
|-------------------------||
|-------------------------||
|-------------------------||
|-9-9-9-9-9-9-9-9-9-9-9---||
|-7-7-7-7-7-7-7-7-7-7-7---||
|-------------------------||


   Interlude II
    N.C.(E5)
    Gtrs IV, V
    PM---------------------------------------------------------------------
    S S S S S S S S S S S S S S S S   S S S S S S S S  S  S S S S S S S
||----------------------------------|------------------------------------||
||o---------------------------------|-----------------------------------o||
||----------------------------------|------------------------------------||
||----9-9-9-7-9-9-9---9-9-9-7-9-9-9-|---9-9-9-7-9-9-9-10-10-9-9-7-7-9-9--||
||o-7---------------7---------------|-7---------------------------------o||
||----------------------------------|------------------------------------||


  (D5)
 -------------------------------|
  S S S S S S S S S S S S S S S S
|------------------------------------|
|------------------------------------|
|------------------------------------|
|---7-7-7-5-7-7-7---7-7-7-5-7-7-7----|
|-5---------------5------------------|
|------------------------------------|


                                    (E5)
  PM-----------------------------------------------------------------
  S S S S S S S S S S S S S S S S   S S S S S S S S S S S S S S S S
|---------------------------------|---------------------------------|
|---------------------------------|---------------------------------|
|---------------------------------|---------------------------------|
|---7-7-7-5-7-7-7-9-9-7-7-5-5-7-7-|---9-9-9-7-9-9-9---9-9-9-7-9-9-9-|
|-5-------------------------------|-7---------------7---------------|
|---------------------------------|---------------------------------|


 ---------------------------------|
  S S S S S S S S  S  S S S S S S S
|-----------------------------------|
|-----------------------------------|
|-----------------------------------|
|---9-9-9-7-9-9-9-10-10-9-9-7-7-9-9-|
|-7---------------------------------|
|-----------------------------------|


  Esus2                    DsusCsus2                          DsusEsus2
  Gtrs II, IV, V
   W          +W                     W            W
   |           |
   o           /

  Gtr I
   W          +Q.    E +E   Q   E   +W           +Q.    E +E   Q   E
|-!7--------|-(7)---!7-(7)-!5--!3-|-(3)--------|-(3)---!3-(3)-!5--!7-|
|-!7--------|-(7)---!7-(7)-!5--!3-|-(3)--------|-(3)---!3-(3)-!5--!7-|
|-!9--------|-(9)---!9-(9)-!7--!5-|-(5)--------|-(5)---!5-(5)-!7--!9-|
|-!9--------|-(9)---!9-(9)-!7--!5-|-(5)--------|-(5)---!5-(5)-!7--!9-|
|-!7--------|-(7)---!7-(7)-!5--!3-|-(3)--------|-(3)---!3-(3)-!5--!7-|
|-!7--------|-(7)---!7-(7)-!5--!3-|-(3)--------|-(3)---!3-(3)-!5--!7-|


                            DsusCsus2                          BsusA5
  +W           +Q.    E +E   Q   E   +W           +Q.    E +E   Q   E   +W
|-(7)--------|-(7)---!7-(7)-!5--!3-|-(3)--------|-(3)---!3-(3)-!2--!5-|-(5)----|
|-(7)--------|-(7)---!7-(7)-!5--!3-|-(3)--------|-(3)---!3-(3)-!2--!5-|-(5)----|
|-(9)--------|-(9)---!9-(9)-!7--!5-|-(5)--------|-(5)---!5-(5)-!4--!2-|-(2)----|
|-(9)--------|-(9)---!9-(9)-!7--!5-|-(5)--------|-(5)---!5-(5)-!4--!2-|-(2)----|
|-(7)--------|-(7)---!7-(7)-!5--!3-|-(3)--------|-(3)---!3-(3)-!2--!0-|-(0)----|
|-(7)--------|-(7)---!7-(7)-!5--!3-|-(3)--------|-(3)---!3-(3)-!2--!0-|-(0)----|


        Csus2  DsusEsus2                          Em9
  +Q.    E +E   Q   E   +W           +H.      +E   E   +W           +W
|-(5)---!3-(3)-!5--!7-|-(7)--------|-(7)------(7)-!0-|-(0)--------|-(0)----||
|-(5)---!3-(3)-!5--!7-|-(7)--------|-(7)------(7)-!0-|-(0)--------|-(0)----||
|-(2)---!5-(5)-!7--!9-|-(9)--------|-(9)------(9)-!0-|-(0)--------|-(0)----||
|-(2)---!5-(5)-!7--!9-|-(9)--------|-(9)------(9)-!4-|-(4)--------|-(4)----||
|-(0)---!3-(3)-!5--!7-|-(7)--------|-(7)------(7)-!2-|-(2)--------|-(2)----||
|-(0)---!3-(3)-!5--!7-|-(7)--------|-(7)------(7)-!0-|-(0)--------|-(0)----||


 Interlude III
  Moderately E=136
  N.C.
 8/8               9/8
  Gtr I
  S S S S H.        S S S S S S E +H     +E
|-----------------|--------------------------|
|-----------------|--------------------------|
|---4---4-3-------|---4---4-3-3-2-(2)----(2)-|
|-2---2-----------|-2---2---2---2-(2)----(2)-|
|-----------------|--------------------------|
|-----------------|--------------------------|


  S S S S H.      +E    S S S S S S E +H     E
|---------------------|---------------------------|
|---------------------|---------------------------|
|---4---4-3-------(3)-|---4---4---3-2-(2)---------|
|-2---2---------------|-2---2---2-----------------|
|---------------------|---------------------------|
|---------------------|---------------------------|


 8/8               9/8
  S S S S H.        S S S S S S E +H     E
|-----------------|------------------------|
|-----------------|------------------------|
|---2---2-1-------|---2---2---1-0-(0)------|
|-0---0-----------|-0---0---0--------------|
|-----------------|------------------------|
|-----------------|------------------------|


 8/8               10/8
  S S S S H.        S S S S S S E +H.
|-----------------|----------------------||
|-----------------|----------------------||
|---4---4-3-------|---4---4---3-2-(2)----||
|-2---2-----------|-2---2---2---2-(2)----||
|-----------------|----------------------||
|-----------------|----------------------||


   Interlude IV
    Faster E=178
    N.C.
   8/8                         5/8                 8/8
    Gtrs IV, V
              PM------------|                 PM--------------------------|
    S S S S E S S E S S E S S   S S S S S S E S S   E S S E S S E S S E S S
||----------------------------|-------------------|-------------------------|
||o---------------------------|-------------------|-------------------------|
||----------------------------|-------------------|-------------------------|
||----9-9---8-----------------|---9-9---8---7-----|-------------------------|
||o-7-----7---7-7-7-7-7-7-7-7-|-7-----7---7---7-7-|-7-7-7-7-7-7-7-7-7-7-7-7-|
||----------------------------|-------------------|-------------------------|


                             4/8           5/8
            PM------------------------|                   PM|
  S S S S E S S E S S E S S   E S S E S S   S S S S S S E S S
|---------------------------|-------------|--------------------|
|---------------------------|-------------|--------------------|
|---------------------------|-------------|--------------------|
|---9-9---8-----------------|-------------|---9-9---8---7------|
|-7-----7---7-7-7-7-7-7-7-7-|-7-7-7-7-7-7-|-7-----7---7---7-7--|
|---------------------------|-------------|--------------------|


 8/8                                                   5/8
  PM------------------|                   PM------------|             PM|
  E S S E S S E S S E S S   S S S S E S S E S S E S S   S S S S S S E S S
|-------------------------|---------------------------|-------------------|
|-------------------------|---------------------------|-------------------|
|-------------------------|---------------------------|-------------------|
|-------------------------|---7-7---6-----------------|---7-7---6---5-----|
|-7-7-7-7-7-7-7-7-7-7-7S5-|-5-----5---5-5-5-5-5-5-5-5-|-5-----5---5---5-5-|
|-------------------------|---------------------------|-------------------|


 8/8                                                   4/8
  PM------------------|               PM--------------------------|
  E S S E S S E S S E S S   S S S S E S S E S S E S S   E S S E S S
|-------------------------|---------------------------|--------------|
|-------------------------|---------------------------|--------------|
|-------------------------|---------------------------|--------------|
|-------------------------|---9-9---8-----------------|--------------|
|-5-5-5-5-5-5-5-5-5-5-5-5S|=7-----7---7-7-7-7-7-7-7-7-|-7-7-7-7-7-7--|
|-------------------------|---------------------------|--------------|


                     1.                          2.
 5/8                 8/8                         7/8
                PM--------------------------------------------------|
  S S S S S S E S S   E S S E S S E S S E S S     E S S E S S E S S E
|-------------------|--------------------------||---------------------||
|-------------------|-------------------------o||---------------------||
|-------------------|--------------------------||---------------------||
|---9-9---8---7-----|--------------------------||---------------------||
|-7-----7---7---7-7-|-7-7-7-7-7-7-7-7-7-7-7-7-o||-7-7-7-7-7-7-7-7-7-7-||
|-------------------|--------------------------||---------------------||


 Interlude V
  Moderately Q=107(8=s8)
  N.C.
 4/4
  Gtrs IV, V
  PM--------------------------------------------------------------------|
      |3|      |3|       |3|     |3|       |3|      |3|       |3|     |3|
  E E E Q E E  E Q   E E E Q E E E Q   E E E Q E E  E Q   E E E Q E E E Q
|------------------|-----------------|------------------|-----------------|
|------------------|-----------------|------------------|-----------------|
|------------------|-----------------|------------------|-----------------|
|-----9-------10---|-----7-------9---|-----9-------10---|-----7-------9---|
|-7-7---7-7-7----7-|-7-7---7-7-7---7-|-7-7---7-7-7----7-|-7-7---7-7-7---7-|
|------------------|-----------------|------------------|-----------------|


  PM--------------------------------------------------------------------|
      |3|     |3|       |3|     |3|   |-3-| |3|     |3|       |3|     |3|
  E E E Q E E E Q   E E E Q E E E Q   E E E E Q E E E Q   E E E Q E E E Q
|-----------------|-----------------|-------------------|-----------------|
|-----------------|-----------------|-------------------|-----------------|
|-----------------|-----------------|-------------------|-----------------|
|-----7-------8---|-----5-------7---|-------7-------8---|-----5-------7---|
|-7-5---5-5-5---5-|-5-5---5-5-5---5-|-8-7-5---5-5-5---5-|-5-5---5-5-5---5-|
|-----------------|-----------------|-------------------|-----------------|


 4/4
  Gtr VI
     ~~~                 ~~~~            ~~~~~~~           ~~~~~~~~~~
             |---3---|           |---3---|         |---3---|
  E  Q.      E  E    E  +Q       E  E    E  +Q     E  E    E  +Q
|-----------------------------|-------------------------------------|
|---12---------12---13-(13)---|-15-13---------------------12-(12)---|
|-----------14----------------|---------14-(14)---12h14-------------|
|-----------------------------|-------------------------------------|
|-----------------------------|-------------------------------------|
|-----------------------------|-------------------------------------|
|
| Gtrs IV, V
| PM-----------------------------------------------------------------
|       |3|              |3-|                |3-|              |3-|
| E  E  E Q  E    E      E  Q    E    E      E  Q  E    E      E  Q
|-----------------------------|-------------------------------------|
|-----------------------------|-------------------------------------|
|-----------------------------|-------------------------------------|
|-------9---------------10----|--------------7-----------------9----|
|-5--7----7--7----7---------7-|--7----7---------7--7----7---------7-|
|-----------------------------|-------------------------------------|


 ~~~~~~~~~~~~~~         ~~~~~~~             ~~~~~~~           ~~~~~~~~~~~~~
   |----3----|  |---3---|           |---3---|         |---3---|   |--3---|
   Q    Q    Q  E  E    E  +Q       E  E    E  +Q     E  E    E  +E   E  E
|--------------------------------|-----------------------------------------|
|-12---12---12----12---13-(13)---|-15-13---------------------12-(12)-12-12-|
|--------------14----------------|---------14-(14)---12h14-----------------|
|--------------------------------|-----------------------------------------|
|--------------------------------|-----------------------------------------|
|--------------------------------|-----------------------------------------|
|
|--------------------------------------------------------------------|
|         |3-|              |3-|                |3-|              |-3-|
|  E E    E  Q  E    E      E  Q    E    E      E  Q  E    E      E   Q
|--------------------------------|-----------------------------------------|
|--------------------------------|-----------------------------------------|
|--------------------------------|-----------------------------------------|
|---------9----------------10----|--------------7-----------------9--------|
|--7-7-------7--7----7---------7-|--7----7---------7--7----7----------7----|
|--------------------------------|-----------------------------------------|


   ~~~~~~~              ~~~~~~~             ~~~~~~~           ~~~~~~~
   |----3----|  |---3---|           |---3---|         |---3---|
   Q    Q    Q  E  E    E  +Q       E  E    E  +Q     E  E    E  +Q
|--------------------------------|-------------------------------------|
|-12-----------------------------|-13----------------------------------|
|------14---14-12-14---15-(15)---|----15---12-(12)------12---14-(14)---|
|--------------------------------|-------------------15----------------|
|--------------------------------|-------------------------------------|
|--------------------------------|-------------------------------------|
|
|  PM-------------------------------------------------------------------
|         |3-|              |3-|                |3-|              |3-|
|  E E    E  Q  E    E      E  Q    E    E      E  Q  E    E      E  Q
|--------------------------------|-------------------------------------|
|--------------------------------|-------------------------------------|
|--------------------------------|-------------------------------------|
|---------7-----------------8----|--------------5-----------------7----|
|--7-5-------5--5----5---------5-|--5----5---------5--5----5---------5-|
|--------------------------------|-------------------------------------|


                                      9/8
                                                ~~~~~~~
   |------3------|  |---3---|           |---3---|         |---3---|
   Q    Q    E.  S  E  E    E  +Q       E  E    E  +Q     E  E    E  +Q     E
|------------------------------------|------------------------------------------||
|------------------------------------|-13------------------------10-(10)---10---||
|-14---14---14--14-12-14---15-(15)---|----15---12-(12)---10h12------------------||
|------------------------------------|------------------------------------------||
|------------------------------------|------------------------------------------||
|------------------------------------|------------------------------------------||
|
|------------------------------------------------------------------------|
|  |-3--| |3-|                  |3-|                |3-|              |3-|
|  E E  E E  Q      E    E      E  Q    E    E      E  Q  E    E      E  Q  S S
|------------------------------------|------------------------------------------||
|------------------------------------|------------------------------------------||
|------------------------------------|------------------------------------------||
|---------7---------------------8----|--------------5-----------------7---------||
|--8-7--5----5------5----5---------5-|--5----5---------5--5----5---------5--8-7-||
|------------------------------------|------------------------------------------||


    Faster Q=138
    N.C.
   4/4
    Gtr II
    W
    Gtrs IV, V
    PM-------------------------------
    E  S  S S S E  S  S S S E  S  S
||----------------------------------|
||o---------------------------------|
||----------------------------------|
||----------------------------------|
||o-7-10-10-9-9-7-10-10-9-9-7-10-10-|
||----------------------------------|


 1.,2.,3.                          4.
                                                                  E5
  W                                 H                Q         E. S
                                                                  |
                                                                  /

                                                                  Gtr V
 -------------------------------------------------------------|
  S S E  S  S S S  S  S S S  Q      S S E  S  S S S  S  S S S  E. S
|--------------------------------||---------------------------------||
|-------------------------------o||---------------------------------||
|--------------------------------||-------------------------------9-||
|--------------------------------||---------------------------------||
|-9-9-7-10-10-9-9-10-10---------o||-9-9-7-10-10-9-9-10-10-----------||
|-----------------------8-8-10---||-----------------------8-8-10----||


   Interlude VI
    Very fast Q=200
                         D5                       C5
    Gtr II
    +H.               +E E   +H.               +E E
     |                 | |    |                 | |
     /                 / /    /                 / /

    Gtr V
    +E  E  E  E  E  E  E E   +E  E  E  E  E  E  E E
||-------------------------|------------------------|
||o-------12-12-10---------|-------12-12-10---------|
||--(9)-9----------12-11-9-|-(9)-9----------12-11-9-|
||-------------------------|------------------------|
||o------------------------|------------------------|
||-------------------------|------------------------|


                         D5    E5
  +W           +H        Q.    E
   |            |        |     |
   /            /        /     /

  +W           +E  E E E Q   E E
|------------|--------------------|
|------------|-------8---8--------|
|-(9)--------|-(9)-7---7-----7-9--|
|------------|--------------------|
|------------|--------------------|
|------------|--------------------|


                       D5                       A5
  +H.               +E E   +H.               +E E
   |                 | |    |                 | |
   /                 / /    /                 / /

  +E  E  E  E  E  E  E E   +E  E  E  E  E  E  E E
|------------------------|------------------------|
|-------12-12-10---------|-------12-12-10---------|
|-(9)-9----------12-11-9-|-(9)-9----------12-11-9-|
|------------------------|------------------------|
|------------------------|------------------------|
|------------------------|------------------------|


              1.                    2.
                         D5    E5              D5
  +W           +H        Q.    E     +Q    Q   Q.    E
   |            |        |     |      |        |
   /            /        /     /      /        /

                                                       Gtr VI
  +W           +E  E E E Q   E E     +E  E E E Q   E E  a
|------------|--------------------||-------------------10---||
|------------|-------8---8-------o||-------8---8------------||
|-(9)--------|-(9)-7---7-----7-9--||-(9)-7---7-----7--------||
|------------|--------------------||-----------------9------||
|------------|-------------------o||-----------------7------||
|------------|--------------------||------------------------||


 Guitar Solo I
  E5                                                D5
  Gtr V
    E     E    Q            E        E       E       E
    |     |    |            |        |       |       |
    /     /    /            /        /       x       /

  Gtr VI
                  T     T            T       T       T
                            |------6------|  |-----6-----|
   +S  S  S S  S  S  S  S  +S   S S  S  S S  S  S S  S S S
|-(10)p7h10p7h10-12p10-12-(12)p10p7-12p10p7-12p10p7-12p5h7-|
|----------------------------------------------------------|
|----------------------------------------------------------|
|----------------------------------------------------------|
|----------------------------------------------------------|
|----------------------------------------------------------|


                                                 C5
  +E      E      Q          E      E      E      E
   |      |      |          |      |      |      |
   /      /      /          /      /      x      /

   T      T      T      T      T        T      T      T
   |----6-----|             |-----6-----| |-----6-----|
   S S S  S S S  S S S  T T S  S S S S  S S S  S S S  S
|-12p7p5-12p7p5-12p7p5-12p7p5-12p7p5h7-10p5h7-10p5h7-10p=|
|--------------------------------------------------------|
|--------------------------------------------------------|
|--------------------------------------------------------|
|--------------------------------------------------------|
|--------------------------------------------------------|


                                           G5
  +E    E    Q           E     E     E     E
   |    |    |           |     |     |     |
   /    /    /           /     /     x     /

        T    T    T      T     T     T       T
                  |-3-|  |----6----| |-3-|
   S S  S S  S S  S S S  S S S S S S S S S T T T T
|--5h7-10p7-10p3-10p5p3-10p5p3-8p5p3-8p5p3h5-7p5p2h|
|--------------------------------------------------|
|--------------------------------------------------|
|--------------------------------------------------|
|--------------------------------------------------|
|--------------------------------------------------|


                        D5    E5
  +E E     E   E        E E E E
   | |     |   |        | | | |
   / /     /   /        / / x /

     T       T      T
     |-3-|     |-3--|
   E S S S S S S S  S a Q.    S S
|--3-8p3p0--------------------------|
|----------3-8p3p2-10p3h5p====3p0s==|
|-----------------------------------|
|-----------------------------------|
|-----------------------------------|
|-----------------------------------|


                                 D5                                     A5
  +E   E    Q         E   E  E   E       +E     E Q         E   E    E  E
   |   |    |         |   |  |   |        |     | |         |   |    |  |
   /   /    /         /   /  x   /        /     / /         /   /    x  /

               ~~~~~~~~~~~
                                 |-3-|    |-3-|   |-3-|
   S S S S  E. S     +E  +E  S S S S S    S S S E S S S S S S S S S +E  E
|----3h5p3p=0--3pb4==(3)r(3)-0h3h5p3h5p|==3h5p3h5p3h5p3p2-2-3p2--------------|
|--5-------(0)-------------------------|------------------------5p3-(3)-3b5==|
|--------------------------------------|-------------------------------------|
|--------------------------------------|-------------------------------------|
|--------------------------------------|-------------------------------------|
|--------------------------------------|-------------------------------------|


                            C5
  +E  E  Q    E   E    E    E
   |  |  |    |   |    |    |
   /  /  /    /   /    x    /

         ~~~~~~~~~
  +Q    +Q   +E   S S +S  S S S
|-------------------------------|
|-(3)---(3)--(3)r-1h3-(3)p1p0---|
|-----------------------------2-|
|-------------------------------|
|-------------------------------|
|-------------------------------|


                  D5     E5                        D5
  +E  E     Q     E  E E E   +E  E Q       E E   E E
   |  |     |     |  |   |    |  | |       | |   | |
   /  /     /     /  /   /    /  / /       / /   x /

                  ~~
            |-3-|
   E.   a S E E E Q.     E   +E  E S S S S E S S E E
|--------------------------|-----5-6p5h6p5-6p5h6p5-6p=|
|--0---------------------5-|-(5)----------------------|
|-------2h4p2p0---2--------|--------------------------|
|---------------x----------|--------------------------|
|--------------------------|--------------------------|
|--------------------------|--------------------------|


                       C5                                     G5
  +E   E Q   E   E E   E     +E   E   Q           E   E   E   E
   |   | |   |   | |   |      |   |   |           |   |   |   |
   /   / /   /   / x   /      /   /   /           /   /   x   /

           ~
             |3|                      |----6----| |--3--| |--3--|
   S S E E E E Q   S S S S    S S S S S S S S S S E E   E E E   E
|--5h6p5-6-5-6-5---5p3h5p3p|==0h5p3p0h5p3p0h5p3p0-----------------|
|--------------------------|----------------------5p3h==5p0-------|
|--------------------------|--------------------------------4p==2-|
|--------------------------|--------------------------------------|
|--------------------------|--------------------------------------|
|--------------------------|--------------------------------------|


                D5       E5                           D5
  +E   E     Q   E  E  E  E   +E  E    Q   E      E E E
   |   |     |   |  |  |  |    |  |    |   |      | | |
   /   /     /   /  /  x  /    /  /    /   /      / x /

                                           ~~~~~~~~~~~~~~
       |-3-|
   S S S S S Q  +Q     E  E    E  Q.       H
|---------------------------|---------------------------|
|---------------------------|----18b20----18pb20========|
|--4-2-4-2-0-------------14s|=19------------------------|
|------------2--(2)s==12----|---------------------------|
|---------------------------|---------------------------|
|---------------------------|---------------------------|


                      A5
   +E  E Q  E E   E    E
    |  | |  | |   |    |
    /  / /  / /   x    /

 ~~~~~~
   +H.            E    E
|----------------------------|
|-(18)----------(18)r-20b22==|
|----------------16----------|
|----------------------------|
|----------------------------|
|----------------------------|


                          C5                D5            G5X
   +E   E   Q     E  E  E  E   +E  E  E       E    E  E E   E
    |   |   |     |  |  |  |    |  |  |       |    |  | |   |
    /   /   /     /  /  x  /    /  /  /       /    /  / x   /

                                                                 Gtr IV
                                                   ~~~~
   +E   E   E  E  E  E  E  E    E  E  E      +E   +Q.      +E     a
|----------------------------|------------------------------------------||
|-(20)-20r-19-17-------------|------------------------------------------||
|----------------19-17-16----|-16-17-19b21==(19)-(19)-----(19)r\-17b19==||
|-------------------------19-|------------------------------------------||
|----------------------------|------------------------------------------||
|----------------------------|------------------------------------------||


 Guitar Solo II
                                 F5                                      D5
  Gtr V
   +E  E   Q       E     E     E  E      +E     E  Q        E    E     E  E
    |  |   |       |     |     |  |       |     |  |        |    |     |  |
    /  /   /       /     /     x  /       /     /  /        /    /     x  /

  Gtr IV
                                                            |---3---|
   +Q     +E.  S   S  S  S  S  E  S  S    S  S  E  E  S  S  E  E    E  E  S  S
|--------------------------------------|---------------------------------------|
|--------------------------------------|---------------------------------------|
|-(17)---(17)-17rp15h17p15h17p15-------|-15h17p15-15---------------------------|
|--------------------------------15h17-|-------------17p15-15------15-17-17p15-|
|--------------------------------------|----------------------17------17-------|
|--------------------------------------|---------------------------------------|


                                     C5                     F5      G5X
  +E  E  Q           E    E     E    E      +E    E     E E E E  E   E
   |  |  |           |    |     |    |       |    |     | | | |  |   |
   /  /  /           /    /     x    /       /    /     / x / /  x   /

      ~~             PM-----------|                     ~~           ~~~~~~
                     |---3---|  |---3---|    |---3---|
   E  E  S  S  S  S  E  E    E  E  E    E    E  E    E  H        E   E
|-----------------------------------------|--------------------------------|
|-----------------------------------------|-------------------------18b20==|
|-----------------------------------------|---------------------(0)--------|
|----15----15--------------------------12-|------------12------------------|
|-17----17----17-16-15-13---15-13-15------|-15-12---15---------------------|
|-----------------------------------------|--------------------------------|


                                       F5
   +E    E  E    E     E    E     E     E
    |    |  |    |     |    |     |     |
    /    /  /    /     /    /     x     /

    ~~~~~
            |---3---|  |---3---|
   +E    E  E  E    E  E  E    E  S  S  S  S
|-------15-13-15p==13-15p13---15-18-15-13-15-|
|-(18)r--------------------------------------|
|--------------------------------------------|
|--------------------------------------------|
|--------------------------------------------|
|--------------------------------------------|


                                            D5
  +E     E     Q           E     Q          E
   |     |     |           |     |          |
   /     /     /           /     /          /

                                       |---3---|
   S  S  S  S  S  S  S  S  S  S  S  S  E  E    E
|-13-15-18-15-13-15-13-15-18-15-13-15-13-15---18-|
|------------------------------------------------|
|------------------------------------------------|
|------------------------------------------------|
|------------------------------------------------|
|------------------------------------------------|


                                           F5                     C5VIII     G5X
  +E     E     Q           E        E   E  E    +E   E   E   E     E  Q      E
   |     |     |           |        |   |  |     |   |   |   |     |  |      |
   /     /     /           /        /   x  /     /   /   /   /     /  /      /

                                                                      ~~~~~~
   S  S  S  S  S  S  S  S  S  E.       +Q       +E   E  +E   S  S  E  Q.
|-15-13-15-13-15-18-15-13-15-18b20====(18)---|-(18)-18r(18)-15----15-----------|
|--------------------------------------------|-----------------15----18b20=====|
|--------------------------------------------|---------------------------------|
|--------------------------------------------|---------------------------------|
|--------------------------------------------|---------------------------------|
|--------------------------------------------|---------------------------------|


                                        F5
   +E   E      Q        E    E     E     E
    |   |      |        |    |     |     |
    /   /      /        /    /     x     /

    ~~~~
               |--3--|  |---3---|
   +E   S   S  E  E  E  E  E    E  S  S  S  S
|---------------------------------------------|
|-(18)-18rp16p15h16p15h16------15-------------|
|-------------------------17------17p15p14h15p|
|---------------------------------------------|
|---------------------------------------------|
|---------------------------------------------|


                                  D5
  +E    E     Q           E  E  E E
   |    |     |           |  |  | |
   /    /     /           /  /  x /

                             ~~~
   |---3---|
   E  E    E  S  S  S  S  E  Q.
|-----------------------------------|
|-----------------------------------|
|-14------14------------------------|
|----17------17p15-15----15-17------|
|---------------------17------------|
|-----------------------------------|


                            C5
   +E   E Q          E  E E  E
    |   | |          |  | |  |
    /   / /          /  / x  /

   +Q     E  E      +Q.      E
|------------------------------|
|---------------------------13-|
|-----------12b14==(12)--------|
|-(17)\------------------------|
|------------------------------|
|------------------------------|


                       F5        G5X                     F5
   +E  E  E       E     E E  E   E      +E  E Q    E E E  E
    |  |  |       |     | |  |   |       |  | |    | | |  |
    /  /  /       x     / /  x   /       /  / /    / / x  /

   +Q     S  +S   S  S  Q    E   E      +E  E E  E E E E  E
|-------------------------------------|-----3------------------|
|-(13)--------------------------------|----------3-------------|
|--------12r(12)-10--------------5b7==|=(5)---5r-3---3---------|
|-------------------12-10s==(8)\------|------------5---5-[4]p==|
|-------------------------------------|------------------------|
|-------------------------------------|------------------------|


                  D5                    F5          C5VIII    (E)
  +E  E Q   E E E E   +E  E E E E  Q    E   E E E E E Q       E
   |  | |   | | | |    |  | | | |  |    |   | | | | | |       |
   /  / /   / / x /    /  / / x /  /    /   / / / x / /       o

                                                              Gtr V
                  ~~~~~~~~
   E  E E E E E E E   +E  E E E E  Q    E   E E E E E E   +E  E
|-------------------|---------------------|---------------------||
|-------------------|---------------------|---5-----------------||
|-------------------|---------------------|---------3-5b7-(5)-9-||
|-[3]---------------|-------------[3]\--3s|=5---5-3-------------||
|-----5-4p3-1-3-x-1-|-(1)---1-3s5---------|---------------------||
|---------------x---|-----3---------------|---------------------||


    E5                   D5                       C5
    Gtr II
     H.               +E E   +H.               +E E
     |                 | |    |                 | |
     /                 / /    /                 / /

    Gtr V
    +E  E  E  E  E  E  E E   +E  E  E  E  E  E  E E
||-------------------------|------------------------|
||o-------12-12-10---------|-------12-12-10---------|
||--(9)-9----------12-11-9-|-(9)-9----------12-11-9-|
||-------------------------|------------------------|
||o------------------------|------------------------|
||-------------------------|------------------------|


                         D5    E5
  +W           +H        Q.    E
   |            |        |     |
   /            /        /     /

  +W           +E  E E E Q   E E
|------------|--------------------|
|------------|-------8---8--------|
|-(9)--------|-(9)-7---7-----7-9--|
|------------|--------------------|
|------------|--------------------|
|------------|--------------------|


                       D5                       A5
  +H.               +E E   +H.               +E E
   |                 | |    |                 | |
   /                 / /    /                 / /

  +E  E  E  E  E  E  E E   +E  E  E  E  E  E  E E
|------------------------|------------------------|
|-------12-12-10---------|-------12-12-10---------|
|-(9)-9----------12-11-9-|-(9)-9----------12-11-9-|
|------------------------|------------------------|
|------------------------|------------------------|
|------------------------|------------------------|


                         D5    E5
  +W           +H        Q.    E
   |            |        |     |
   /            /        /     /

  +W           +E  E E E Q   E E
|------------|--------------------||
|------------|-------8---8-------o||
|-(9)--------|-(9)-7---7-----7-9--||
|------------|--------------------||
|------------|-------------------o||
|------------|--------------------||


   Interlude VII
    Half time Q=105
    $
    E5
    Gtr II
     W
     |
     /

    Gtrs IV, V
                                      ~~~~
     E   S  S  S S  S  S  S  S  S  S  Q
||---------------------------------------|
||o-----------12---12-12-12h13p12----12--|
||--(9)-12-14---------------------14-----|
||--14-----------------------------------|
||o--------------------------------------|
||---------------------------------------|


                                         To Coda
  C5
    W
    |
    /

 ~~~~~~
   +S   S  S  S  S S  S  S  S  S  S  S  S  S  S  S
|--------------------------------------------------|
|-(12)----------12---12-12-12-13-12----15-13-12----|
|---------12-14---------------------14----------14-|
|------14------------------------------------------|
|--------------------------------------------------|
|--------------------------------------------------|


  G5
  W
  |
  /

                                     ~~
  S  S  S  S  S S  S  S  S  S  S  S  Q
|---------------------------------------|
|------------12---12-12-12-13-12----12--|
|------12-14---------------------14-----|
|---14----------------------------------|
|---------------------------------------|
|---------------------------------------|


  D5                      C5          D5
   H                       Q           Q
   |                       |           |
   /                       /           /

   S  S  S  S  S  S  S  S  S  S  S  S  S  S  S  S
|--------------------------------------------------||
|-15-13-12----12----------------------------------o||
|----------14----14-12-11-12p11-------12p11--------||
|-------------------------------14-12-------14-12--||
|-------------------------------------------------o||
|--------------------------------------------------||


    E5
    Gtr II
     W
     |
     /

    Gtr V
                                      ~~~~
     E  S  S  S  S  S  S  S  S  S  S  Q
||---------------------------------------|
||o----------12----12-12-12h13p12----12--|
||-----12-14----------------------14-----|
||--14-----------------------------------|
||o--------------------------------------|
||---------------------------------------|
|
|   Gtr IV
|    Q        H.
||------------0--------------------------|
||o-----------0--------------------------|
||---------------------------------------|
||---------------------------------------|
||o--------------------------------------|
||---0-----------------------------------|


  C5
    W
    |
    /

 ~~~~~~
   +S   S  S  S  S  S  S  S  S  S  S  S  S  S  S  S
|---------------------------------------------------|
|-(12)----------12----12-12-12-13-12----15-13-12----|
|---------12-14----------------------14----------14-|
|------14-------------------------------------------|
|---------------------------------------------------|
|---------------------------------------------------|
|
|   Q            H.
|----------------3----------------------------------|
|----------------3----------------------------------|
|---5-----------------------------------------------|
|---5-----------------------------------------------|
|---3-----------------------------------------------|
|---------------------------------------------------|


  1.
  G5
  W
  |
  /

                                      ~~
  S  S  S  S  S  S  S  S  S  S  S  S  Q
|----------------------------------------|
|------------12----12-12-12-13-12----12--|
|------12-14----------------------14-----|
|---14-----------------------------------|
|----------------------------------------|
|----------------------------------------|
|
| Q           H.
|-------------3--------------------------|
|-------------3--------------------------|
|-------------0--------------------------|
|-0--------------------------------------|
|-x--------------------------------------|
|-3--------------------------------------|


  D5                      C5          D5
   H                       Q           Q
   |                       |           |
   /                       /           /

   S  S  S  S  S  S  S  S  S  S  S  S  S  S  S  S
|--------------------------------------------------||
|-15-13-12----12----------------------------------o||
|----------14----14-12-11-12p11-------12p11--------||
|-------------------------------14-12-------14-12--||
|-------------------------------------------------o||
|--------------------------------------------------||
|
|  Q           Q           S  S  E     S  S  E
|--------------5-----------3--3--------5--5--------||
|--------------5-----------3--3--------5--5-------o||
|--7-----------------------5--5--------7--7--------||
|--7-----------------------5--5--------7--7--------||
|--5-----------------------3--3--------5--5-------o||
|--------------------------------------------------||


  2.
  G5
  W
  |
  /

                                     ~~~
  S  S  S  S  S S  S  S  S  S  S  S  Q
|---------------------------------------------|
|------------12---12-12-12-13-12----12--------|
|------12-14---------------------14-----------|
|---14----------------------------------------|
|---------------------------------------------|
|---------------------------------------------|
|
|                                       |-3-|
| Q           H                     +E  S S S
|-------------3---------------------(3)-------|
|-------------3---------------------(3)-------|
|-0-----------0---------------------(0)-7-7-7-|
|-0-------------------------------------7-7-7-|
|-x-------------------------------------5-5-5-|
|-3-------------------------------------------|


                                     D.S. al Coda
  D5                        C5          D5
   H                         Q           Q
   |                         |           |
   /                         /           /

   S  S  S  S  S    S  S  S  S  S  S  S  S  S  S  S
|---------------------------------------------------|
|-15-13-12----12------------------------------------|
|----------14------14-12-11-12p11-------12p11-------|
|---------------------------------14-12-------14-12-|
|---------------------------------------------------|
|---------------------------------------------------|
|
|  Q           Q             S  S  E     S  S  E
|--------------5\------------3--3--------5--5-------|
|--------------5\------------3--3--------5--5-------|
|--7----------(7)\-----------5--5--------7--7-------|
|--7----------(7)\-----------5--5--------7--7-------|
|--5----------(5)\-----------3--3--------5--5-------|
|---------------------------------------------------|


  &
  G5
  Gtr II
  W
  |
  /

  Gtr V
  S  S  S  S  S S  S  S  S  S  S  S  E E
|----------------------------------------|
|------------12---12-12-12-13-12----12---|
|------12-14---------------------14------|
|---14-----------------------------------|
|----------------------------------------|
|----------------------------------------|


  H.=H
  D5                      C5          D5
   H                       Q           Q
   |                       |           |
   /                       /           /

   S  S  S  S  S  S  S  S  S  S  S  S  S  S  S  S
|-------------------------------------------------||
|-15-13p12----12----------------------------------||
|----------14----14-12-11-12p11-------12-11-------||
|-------------------------------14-12-------14-12-||
|-------------------------------------------------||
|-------------------------------------------------||


 Chorus
  Moderately slow Q=84
  E5                C5                G5                   D5
  Gtrs IV, V
  PM|   PM--|       PM------------------------------|      PM------------|
  E E E E E E E E   E E E E E E E E   E E E E E E E S  S   E E E E E E E E
|-----------------|-----------------|--------------------|-----------------|
|-----------------|-----------------|--------------------|-----------------|
|-----------------|-5-5-5-5-5-5-5-5-|--------------------|-----------------|
|-----2-------2---|-5-5-5-5-5-5-5-5-|-5-5-5-5-5-5-5-5/-x-|-7-7-7-7-7-7-7-7-|
|-2-2-2-2-2-2-2-2-|-3-3-3-3-3-3-3-3-|-5-5-5-5-5-5-5-5/-x-|-5-5-5-5-5-5-5-5-|
|-0-0-0-0-0-0-0-0-|-----------------|-3-3-3-3-3-3-3-3/---|-----------------|


  A5                C                 G                 D
                  Gtr I
  PM--------|
  E E E E E E E E   E E E E E E E E   E E E E E E E E   E E E E E E E E
|-----------------|-----------0-----|-----------------|-----------------|
|-----------------|---------6-------|-----------0-----|---------8p7-----|
|-----------------|-----5-------5---|---------5-------|-----7-------7---|
|-2---2-2-2-2-2-2-|---5---5-------5-|-----5-------5---|---7---7-------7-|
|-0-0-0-0-0-0-0-0-|-3---------------|---5---5-------5-|-5---------------|
|-----------------|-----------------|-3---------------|-----------------|


                                             H.=H
  A                C                 G                 E
  E E E E E E Q    E E E E E E E E   E E E E E E E E   E E E E +Q   +Q
|----------------|-----------0-----|-----------------|-------------------||
|----------------|---------6-------|-----------0-----|-------------------||
|---------7p6----|-----5-------5---|---------5-------|-----9-------------||
|-----7-------7--|---5---5-------5-|-----5-------5---|---9---9-(9)--(9)--||
|---7---7--------|-3---------------|---5---5-------5-|-7-----------------||
|-5--------------|-----------------|-3---------------|-------------------||


 Outro
  Original tempo Q=60
  N.C.(E5)
  E S S E S S S S E Q    +S  S S S E S S E. S Q
|----------------------|-------------------------|
|----------------------|-----------------3-------|
|---2-4-5-4---2-4-5-4--|-(4)---2-4-5-4-5----5-4--|
|----------------------|-------------------------|
|----------------------|-------------------------|
|-0--------------------|--0----------------------|
  W                       W


  +E  S S E S S S S E Q    +S  S S S E. S E. S Q    +W
|------------------------|------------------------|--------*|
|------------------------|------------------------|--------*|
|-(4)-2-4-5-4---2-4-5-4--|-(4)--------------------|--------*|
|------------------------|-------2-4-5--4-5--4-2--|-(2)----*|
|------------------------|------------------------|--------*|
|--0---------------------|--0---------------------|--------*|
   W                        W


Duration Legend
---------------
W - whole; H - half; Q - quarter; E - 8th; S - 16th; T - 32nd; X - 64th; a - acciaccatura
+ - note tied to previous; . - note dotted; .. - note double dotted
Uncapitalized letters represent notes that are staccato (1/2 duration)
Irregular groupings are notated above the duration line
Duration letters will always appear directly above the note/fret number it represents the
duration for.  Duration letters with no fret number below them represent rests.  Multi-
bar rests are notated in the form Wxn, where n is the number of bars to rest for.  Low
melody durations appear below the staff

Tablature Legend
----------------
 h   - hammer-on
 p   - pull-off
 b   - bend
 pb  - pre-bend
 r   - bend release (if no number after the r, then release immediately)
 /\  - slide into or out of (from/to "nowhere")
 s   - legato slide
 S   - shift slide
  - natural harmonic
[n]  - artificial harmonic
n(n) - tapped harmonic
 ~   - vibrato
 tr  - trill
 T   - tap
 TP  - trem. picking
 PM  - palm muting
\n/  - tremolo bar dip; n = amount to dip
 \n  - tremolo bar down
 n/  - tremolo bar up
/n\  - tremolo bar inverted dip
 =   - hold bend; also acts as connecting device for hammers/pulls
 <>  - volume swell (louder/softer)
 x   - on rhythm slash represents muted slash
 o   - on rhythm slash represents single note slash

Misc Legend
-----------
 |  - bar
||  - double bar
||o - repeat start
o|| - repeat end
*|  - double bar (ending)
 :  - bar (freetime)
 $  - Segno
 &  - Coda
Tempo markers -  = BPM(8/16=s8/s16), where s8 = swing 8ths, s16 = swing 16ths


***************************************************************************************
* Generated using Power Tab Editor by Brad Larsen - http://powertab.guitarnetwork.org *
***************************************************************************************

            
            
Suggest correction
Creating personal tab
Creating personal tab
You can edit any tab online and save it as your Personal.

You can edit, replace or remove any tab part or add personal notes – all changes will be seen only by you.

Personal tabs can be accessed anytime from any device, even offline.
Learn more »
Give kudos to tab author, rate the tab!
1 2 3 4 5
comments
print report bad tab
guest
Wanna post a correction for this tab? Suggest correction