Oops, an error
Loading. Please wait.

Starblind Bass Tab

version 1
version 1

Whole song

Interactive

1,283 views 6 this week
no commentswrite comment
1 2 3 4 5
please rate
add to favorites
launch autoscroll
font size
0
reset
guitar tuner
Autoscroll
slow
fast
+/-
esc
set tempo
stop
Help us to improve Ultimate-Guitar.com Take our survey!
×
Author
Difficulty
novice
----------------------------------------------------------------------------
			  Iron Maiden - Starblind (bass tab)
---------------------------------------------------------------------------

Tabbed By : Billy Wang
e-mail: billywang@gmail.com

Tuning: Standard. EADG

Intro:

G|----------------------------------------------|
D|----------------------------------------------|
A|---3-------3----------------------------------|
E|-0-----5--------------------------------------|

End Intro/play this when jumping into the verse:

G|---------------------------------------------|
D|---------------------------------------------|
A|-0--2--3-------------------------------------|
E|----------1----------------------------------|


Verse (play the rhythm with the guitar strumming, like a classic Harris triplet):

G|-----------------------------------------------------------------------|
D|-----------------------------------------------------------------------|
A|-777777777-----3333333333--------------333333333333--------------------|
E|--------------------------555555555555---------------------------------|

Chorus:

G|-----------------------------------------------------------------------|
D|-----------------------------------------------------------------------|
A|----------33333----555555-------------------x2-------------------------|
E|----0000-------------------------3-2-----------------------------------|

G|----------------------------------------------------------------------|
D|----------------------------------------------------------------------|
A|----------6666-88888----1-0h1p0-----------x2--------------------------|
E|-----333--------------------------1h3---------------------------------|

Play verse during Adrian Smith's first solo.

Play verse and then chorus again.

Rhythm during Smith's second solo:

G|---------------------------------------------|
D|--------------------------5------------------|
A|----------7-7-7------5h7---------------------|
E|-0-0-0-0---------5h7-------------------------|


G|---------------------------------------------|
D|-------------------5----5h7------------------|
A|----------7-7----3---------------------------|
E|-0-0-0-0-------3-----5-----------------------|

Rhythm during Murray's solo and Smith's third solo:

G|---------------------------------------------|
D|---------------------------------------------|
A|-3----5---x2--6---8-----x2-------------------|
E|----3-----------6----------------------------|

Solo Break:

G|-----------------------------------------------------------------|
D|-----------------------------------------------------------------|
A|-------5----------3----------1-------3---------------------------|
E|-----------------------------------------------------------------|

end on E.

Repeat Intro during Smith's final clean guitar solo (he's a beast!).

Play this before going back into the final verse:

G|---------------------------------------------|
D|---------------------------------------------|
A|---2-2-2-2---0-0-----------------------------|
E|-------------------3-2-2-3p2-0---------------|

Play one final Verse and Chorus and finish on a G (low G on E string).

The song structure is very straightforward. Email me if there are any problems, comments 
concerns. Thank you! Up the Irons!

| /  slide up
| \  slide down
| h  hammer-on
| p  pull-off
| ~  vibrato
| +  harmonic
Suggest correction
What's this?
You can suggest a correction to this tab. Community and Mods will review your correction and vote to approve or reject it.
comments
We did not receive enough feedback on this tab! Please rate:
print report bad tab
1 2 3 4 5
guest
You may want to rate the tab now too:
select rating
Please do not post tabs as comments. Select "correction" instead!