Oops, an error
Loading. Please wait.

Starblind Bass Tab

version 2
version 2

Whole song

Interactive

272 views 1 this week
no commentswrite comment
1 2 3 4 5
please rate
add to favorites
launch autoscroll
font size
0
reset
guitar tuner
Autoscroll
slow
fast
+/-
esc
set tempo
stop
Help us to improve Ultimate-Guitar.com Take our survey!
×
Author
-----------------------------------------------------------------------------
                             STARBLIND - Iron Maiden
-----------------------------------------------------------------------------
Tabbed by: Mr. Zaenk
E-mail: Zen_works@ymail.com

Tuning:Standard EADG

Intro: (- = 1/8 note)

G|----------------|----------------|----------------|----------------|
D|----------------|----------------|----------------|----------------|
A|----------------|----------------|3------3----3---|3------3----3---|
E|0------0----0---|0------0----0---|----------------|----------------|

|----------------|----------------|----------------|----------------|
|----------------|----------------|----------------|----------------|
|0------0----0---|0------0----0---|2------2----2---|2------2----2---|
|----------------|----------------|----------------|----------------|

|----------------|----------------|----------------|----------------|
|----------------|----------------|----------------|----------------|
|----------------|----------------|3------3----3---|3------3----3---|
|0------0----0---|0------0----0---|----------------|----------------|

|----------------|----------------|4------4----4---|4------4--4~----|
|----------------|----------------|----------------|----------------|
|0------0----0---|0------0----0---|----------------|----------------|
|----------------|----------------|----------------|----------------|
let last note ring for 2 bars

             (- = 1/16 note)
             |---------------------------------------------------|
Guitar only  |--------------------3~ let ring including next bar-|
For 6 bars   |--0-0-0-2-----3------------------------------------|
             |---------------------------------------------------|


Verse: (- = 1/16 note)

|--------------------------------|--------------------------------|
|--------------------------------|--------------------------------|
|--------------------------------|--------------------------------|
|0-000-0---0---0---0---0---0-0---|0-000-0---0---0---0---0---0-0---|

|--------------------------------|--------------------------------|
|--------------------------------|--------------------------------|
|3-333-3---3---3---3---3---3-3---|3-333-3---3---3---3---3---3-3---|
|--------------------------------|--------------------------------|

|--------------------------------|--------------------------------|
|--------------------------------|--------------------------------|
|0-000-0---0---0---0---0---0-0---|0-000-0---0---0---0---0---0-0---|
|--------------------------------|--------------------------------|

|--------------------------------|--------------------------------|
|--------------------------------|--------------------------------|
|3-333-3---3---3---3---3---3-3---|3-333-3---3---3---3---3---3-3---| 2X
|--------------------------------|--------------------------------|


Chorus: (- = 1/16 note)
Verse 1X

|--------------------------------|--------------------------------|
|--------------------------------|--------------------------------|
|------------------3-3---3-------|5-------5---5-5---5-5---5---5---| 2X
|0-------0---0-0-----------------|--------------------------------|

|--------------------------------|--------------------------------|
|--------------------------------|--------------------------------|
|------------------6-6---6-------|8-------8---8-8---8-8---8---8---| 2X
|3-------3---3-3-----------------|--------------------------------|


Guitar-Solo:
Verse 1X


Verse 1X


Chorus 1x

|---------|
|---------|
|---------|
|0~~~~----| let ring for 5 more entire bars


Solo: (- = 1/16 note)
             |------------|
Guitar Only  |----------5-|
For 7 bars   |X-5---7-7---|
             |------------|

|----------------------------|----------------------------|
|--------------------------5-|--------------------5---5-7-|
|7-----7-X-7-X-7-------5-7---|------7-X-7-------3---35----|
|--000-------------5-7-------|0-000---------3-------------|

|----------------------------|----------------------------|
|--------------------------5-|--------------------5---5-7-|
|------7-X-7-X-7-------5-7---|------7-X-7-------3---35----| 5X
|0-000-------------5-7-------|0-000---------3-------------|

                                                                        \
|-----------------|----------------|-----------------|----------------| |
|-----------------|----------------|-----------------|----------------| |
|3---X-------5~---|(5)~ring--------|3---X-------5~---|(5)~ring--------| |
|------3---X------|----------------|------3---X------|----------------| |
                                                                        | 2X
|-----------------|----------------|-----------------|----------------| |
|-----------------|----------------|-----------------|----------------| |
|6---X-------8~---|(5)~ring--------|6---X-------8~---|(8)~ring--------| |
|------6---X------|----------------|------6---X------|----------------| |
                                                                        /

Solo: (- = 1/16 note)

|----------------|------------|----------------|------------|
|----------------|------------|----------------|------------|
|5-5-X-----------|------------|3-3-X-----------|------------|
|----------------|------------|----------------|------------|

|----------------|------------|----------------|------------|
|----------------|------------|----------------|------------|
|1-1-X-----------|------------|3-3-X-----------|------------|
|----------------|------------|----------------|------------|

|----------------|------------|----------------|------------|
|----------------|------------|----------------|------------|
|5-5-X-----------|------------|3-3-X-----------|------------|
|----------------|------------|----------------|------------|

|----------------|------------|----------------|------------|
|----------------|------------|----------------|------------|
|1-1-X-----------|------------|3-3~ring--------|(3)~ring----|
|----------------|------------|----------------|------------|

                                                            \
|----------------------------|----------------------------| |
|----------------------------|----------------------------| |
|5-5-----5-----5-----5---5---|3-3-----3-----3-----3---3---| |
|----------------------------|----------------------------| |
                                                            | 2X
|----------------------------|----------------------------| |
|----------------------------|----------------------------| |
|1-1-----1-----1-----1---1---|3-3-----3-----3-----3---3---| |
|----------------------------|----------------------------| |
                                                            /

Intro varied (- = 1/8 note)


|-------|
|-------|
|-------|
|0~-----| let ring for 3 more entire bars

|----------------|----------------|----------------|----------------|
|----------------|----------------|----------------|----------------|
|----------------|----------------|3------3----3---|3------3----3---|
|0------0----0---|0------0----0---|----------------|----------------|

|----------------|----------------|----------------|----------------|
|----------------|----------------|----------------|----------------|
|0------0----0---|0------0----0---|2222222222222222|2--0----------0-|
|----------------|----------------|----------------|------3--2--0---|


Verse 1X


Chorus 1X


Outro:
|--------------------------------|--------------------------------|
|--------------------------------|--------------------------------|
|------------------3-3---3-------|5-------5---5-5---5-5---5---5---| 2X
|0-------0---0-0-----------------|--------------------------------|

|--------------------------------|--------------------------------|
|--------------------------------|--------------------------------|
|------------------6-6---6-------|8-------8---8-8---8-8---8---8---|
|3-------3---3-3-----------------|--------------------------------|
                                                 |slow down >>>
|--------------------------------|--------------------------------|
|--------------------------------|--------------------------------|
|------------------6-6---6-------|8-------8---8-8-8-------6-------|
|3-------3---3-3-----------------|--------------------------------|

|--------||
|--------||
|10~-----|| let ring and fade out
|--------||



~   let ring
X   rets/pause
Suggest correction
Give kudos to tab author, rate the tab!
1 2 3 4 5
comments
print report bad tab
guest
You may want to rate the tab now too:
select rating
Please do not post tabs as comments. Select "correction" instead!