Oops, an error
Loading. Please wait.

Strange World Tab

version 2
version 2

Whole song

Interactive

23,130 views 69 this week
5 commentsread comments
1 2 3 4 5
x 11
add to favorites
launch autoscroll
font size
0
reset
how to read this tab
guitar tuner
Autoscroll
slow
fast
+/-
esc
set tempo
stop
Help us to improve Ultimate-Guitar.com Take our survey!
×
Author
Difficulty
advanced
[Intro]
(Gtr 2)
e|----------0---------------0-------|----------0---------------0-------|
B|------------0---------------0-----|------------0---------------0-----|
G|--------0-----0---------0-----0---|--------0-----0---------0-----0---|
D|------4---------4-----4---------4-|------4---------4-----4---------4-|
A|----2---------------2-------------|----2---------------2-------------|
E|--0---------------0---------------|--0---------------0---------------|

[Gtr 1]
e|--19-----12------19------12--------|
B|----------------------12-----------|
G|-----------------------------------|
D|-----------------------------------|
A|-----------------------------------|
E|-----------------------------------|

[Gtr 2]
e|--0-------------------|------0---------0--------------0---|
B|----0-----------------|--------0---------0----------0---0-|
G|------0---------------|--0-------0--0------0------0-------|
D|--------4-------------|--9----------5-----------7---------|
A|----------2-----------|--10---------7---------9-----------|
E|----------------------|-----------------------------------|

[Gtr 1]
e|--------12--19-----19------12------|
B|--12--------------------12---------|
G|-----------------------------------|
D|-----------------------------------|
A|-----------------------------------|
E|-----------------------------------|

[Gtr 2]
e|-------0---0----0---0------0---------0------|------0---------0--------------0---|
B|---------0---7----0---0------0-7-------0-7--|--------0---------0----------0---0-|
G|-----0--------------------------------------|----------0---------0------0-------|
D|------------------------5-------------------|-------------------------7---------|
A|--7-------------------------------7---------|--10---------7---------9-----------|
E|--------------------------------------------|-----------------------------------|

[Gtr 1]
e|--19-------12------12---------12------|
B|-------12-----------------12----------|
G|--------------------------------------|
D|--------------------------------------|
A|--------------------------------------|
E|--------------------------------------|

[Gtr 2]
e|---------7-----0---0---0-----0-----------0-------|------0-----------0---------------0---|
B|-------0-----7---7---7---7-----7---7---0---0---0-|----0---0---0-------0---0-------0---0-|
G|-----0-----0---------------0-----0-----------0---|----------0-----------0-------0-------|
D|-------------------------------------5-----------|--5-------------5-----------7---------|
A|--7----------------------------------------------|--------------7-----------9-----------|
E|-------------------------------------------------|--------------------------------------|

[Gtr 1]
e|--19----12--19-----12--------12-12-|
B|----------------12--------12-------|
G|-----------------------------------|
D|-----------------------------------|
A|-----------------------------------|
E|-----------------------------------|

[Gtr 2]
e|---------7-----0---0---0---0---0---0------0---0-|------0---------0--------------0---|
B|-------0-----7---7---7---7---7---7------7---7---|--------0---------0----------0---0-|
G|-----0-----0------------------------------------|----------0---------0------0-------|
D|-------------------------5-----------5----------|-------------------------7---------|
A|--7---------------------------------------------|--10---------7---------9-----------|
E|------------------------------------------------|-----------------------------------|

[Solo]
(Gtr 1)
e|-------------------------------|------------14--15--15/17~----15-17p15\14-15p14-----|
B|-------------------------17p15-|--17~-------------------------------------------15--|
G|-------------------------------|----------------------------------------------------|
D|-------------------------------|----------------------------------------------------|
A|-------------------------------|----------------------------------------------------|
E|-------------------------------|----------------------------------------------------|

e|-----------------------------------------|----------------------------------------------|
B|--17~---------17b17p15-17~---------------|-------------15-------------12-13-15-12-13-15/|
G|--------------------------------------12-|--14b-----------14b-14~-----------------------|
D|-----------------------------------14----|----------------------------------------------|
A|-----------------------------------------|----------------------------------------------|
E|-----------------------------------------|----------------------------------------------|

e|-------------14-14h15-14------------------|
B|--17~--------------------15-17~-----------|
G|----------------------------------------7/|
D|--------------------------------------9---|
A|------------------------------------------|
E|------------------------------------------|

e|-----------------------------------------------|-------------------------------12-14-|
B|---------7-8p7---7-8/-10~-----8h10p8-7h8p7-----|-------------------------------------|
G|--9~-----------9---------------------------9-7-|--9b---9b-9b-9b-9r7-9~---------------|
D|-----------------------------------------------|-------------------------------------|
A|-----------------------------------------------|-------------------------------------|
E|-----------------------------------------------|-------------------------------------|

e|--15~-----12-14-15-12-14-15/17--14h15----14-------------------|
B|--------------------------------------17----15h17-13p12-13-15-|
G|--------------------------------------------------------------|
D|--------------------------------------------------------------|
A|--------------------------------------------------------------|
E|--------------------------------------------------------------|

e|----------------------------|
B|--17~-----------------------|
G|----------------------------|
D|----------------------------|
A|----------------------------|
E|----------------------------|

[Guitar behind solo]
(Gtr 2)
e|---------------0---0------0---0------0---0---|--3--------3--------5-------5--------|
B|-------0-7--7----7---7-7----7---7-7----7---7-|-----5--------5-----7----7-----7-----|
G|-----0---------------------------------------|--------5--------5/-7-------------7--|
D|---------------------------------------------|-------------------------------------|
A|--7------7--7----------7----------7----------|-------------------------------------|
E|---------------------------------------------|-------------------------------------|

e|--7---7-----7--------7---7-----7--------|--3--------3---------5--------5----------|
B|--8-----8------8-----7-----7------7-----|-----5---------5---5----7----------7---7-|
G|--9-------9-------9--9-------9-------9--|--------5--------5---------7-----7---7---|
D|----------------------------------------|-----------------------------------------|
A|----------------------------------------|-----------------------------------------|
E|----------------------------------------|-----------------------------------------|
Play Both^^^^^again

e|--7--------7----------7----------7------7--|--3--------3--------5-------5----------|
B|-----8-----8----8---8-7----7---7-7----7-7--|-----5--------5-----7----7-----7-------|
G|--------9--9--9---9---9--9---9---9--9---9--|--------5--------5/-7-------------7----|
D|-------------------------------------------|---------------------------------------|
A|-------------------------------------------|---------------------------------------|
E|-------------------------------------------|---------------------------------------|

(Play this bar again after)
e|--7---7-----7--------7---7-----7--------|--3--------3--------5-------5-------------|
B|--8-----8------8-----7-----7------7-----|-----5--------5-----7----7-----7----------|
G|--9-------9-------9--9-------9-------9--|--------5--------5/-7-------------7-------|
D|----------------------------------------|------------------------------------------|
A|----------------------------------------|------------------------------------------|
E|----------------------------------------|------------------------------------------|

[Verse]
(Gtr 1)
e|--------2-----2-----------------------------|
B|----------0------0-----------1--3-5-3-0-1-0-|
G|----0-------0-------------0-----------------|
D|----2------------------2--------------------|
A|----2---------------3-----------------------|
E|----0---------------------------------------|

e|----------3-2-------2-------0---0-10/12-12-12\10--|
B|------3-------3---------------1---10/12-12-12\10--|
G|----2---------------------0-----------------------|
D|--0-----0--------0--------------------------------|
A|-----------------------3--------------------------|
E|--------------------------------------------------|
Play Both^^^^^again

  (Play this again after the next bar)
e|--------2-----2-----------------------------|
B|----------0------0-----------1--3-5-3-0-1-0-|
G|----0-------0-------------0-----------------|
D|----2------------------2--------------------|
A|----2---------------3-----------------------|
E|----0---------------------------------------|

e|----------3-2-------2-------0-------------------|
B|------3-------3---------------------------------|
G|----2---------------------0------------12-7--5--|
D|--0-----0--------0------------------12----------|
A|-----------------------3---------12-------------|
E|------------------------------12----------------|

e|----------3-2-------2-------0-10/12-12-12-12-12\10--|--------7---7--------7------------|
B|------3-------3---------------10/12-12-12-12-12\10--|------8---8----8-----8------------|
G|----2---------------------0-------------------------|------------------9--9------------|
D|--0-----0--------0----------------------------------|----------------------------------|
A|-----------------------3----------------------------|----------------------------------|
E|----------------------------------------------------|--0-------------------------------|

[Gtr 2]
e|-----7-----7--------7--------7--------|
B|-------8------8--------8--------8-----|
G|---------9-------9--------7--------7--|
D|--------------------------------------|
A|--------------------------------------|
E|--------------------------------------|

e|--5-----5-----5--------3--------3-----3--|--7--------7-------7--7--------7------|
B|----7-----7------7--------5--------5-----|-----8-------8---8-------8-----8------|
G|------7-----7-------7--------5-----------|--------9------9------------7--7------|
D|-----------------------------------------|--------------------------------------|
A|-----------------------------------------|--------------------------------------|
E|-----------------------------------------|--------------------------------------|

e|--5--------5-------5--3--------3-----3--|--7--------7-------7--7--------7------|
B|-----7-------7---7-------5--------5-----|-----8-------8---8-------8-----8------|
G|--------7------7------------5-----------|--------9------9------------7--7------|
D|----------------------------------------|--------------------------------------|
A|----------------------------------------|--------------------------------------|
E|----------------------------------------|--------------------------------------|

e|--5--------5--------3--------3------|--7--------7------7--------7-------|
B|-----7-------7---------5-----5------|-----8-----8---------8--------8----|
G|--------7------7----------5--5------|--------9--9------------7----------|
D|------------------------------------|-----------------------------------|
A|------------------------------------|-----------------------------------|
E|------------------------------------|-----------------------------------|

e|--5--------5--------3--------3--------|
B|-----7--------7--------5--------5-----|
G|--------7--------7--------5--------5--|
D|--------------------------------------|
A|--------------------------------------|
E|--------------------------------------|

[Post-Verse 1]
(Gtr 2)
e|--------------------0---0------0---0-|
B|---------------7--7---7---7--7---7---|
G|---------------0---------------------|
D|---------------5---------------------|
A|---------------7---------------------|
E|--0----------------------------------|

[Gtr 1]
e|--12------------19-------12------|
B|------12-------------12----------|
G|---------------------------------|
D|---------------------------------|
A|---------------------------------|
E|---------------------------------|

[Gtr 2]
e|------0---------0--------------0---|---------7-----0---0---0-----0-----------0-------|
B|--------0---------0----------0---0-|-------0-----7---7---7---7-----7---7---0---0---0-|
G|--0-------0--0------0------0-------|-----0-----0---------------0-----0-----------0---|
D|--9----------5-----------7---------|-------------------------------------5-----------|
A|--10---------7---------9-----------|--7----------------------------------------------|
E|-----------------------------------|-------------------------------------------------|

[Gtr 1]
e|--12--------12------19-------12------|
B|--------12---------------12----------|
G|-------------------------------------|
D|-------------------------------------|
A|-------------------------------------|
E|-------------------------------------|

[Gtr 2]
e|------0---------0--------------0---|-----------0------0---0------0---0------0---0-|
B|--------0---------0----------0---0-|---------7---7--7---7---7--7---7---7--7---7---|
G|--0-------0--0------0------0-------|-------0-----0----------0----------0----------|
D|--9----------5-----------7---------|-----5-------5----------5----------5----------|
A|--10---------7---------9-----------|--7----------7----------7----------7----------|
E|-----------------------------------|----------------------------------------------|

[Gtr 1]
e|--12--------12------19-------12------|
B|--------12---------------12----------|
G|-------------------------------------|
D|-------------------------------------|
A|-------------------------------------|
E|-------------------------------------|

[Gtr 2]
e|------0---------0--------------0---|---------7-----0---0---0-----0-----------0-------|
B|--------0---------0----------0---0-|-------0-----7---7---7---7-----7---7---0---0---0-|
G|--0-------0--0------0------0-------|-----0-----0---------------0-----0-----------0---|
D|--9----------5-----------7---------|-------------------------------------5-----------|
A|--10---------7---------9-----------|--7----------------------------------------------|
E|-----------------------------------|-------------------------------------------------|

[Gtr 1]
e|--12--------12-------19--------12------|
B|--------12-------12--------12----------|
G|---------------------------------------|
D|---------------------------------------|
A|---------------------------------------|
E|---------------------------------------|

[Gtr 2]
e|------0---------0--------------0---|---------------0---0------0---0------0---0---|
B|--------0---------0----------0---0-|-------0-7--7----7---7-7----7---7-7----7---7-|
G|--0-------0--0------0------0-------|-----0---------------------------------------|
D|--9----------5-----------7---------|---------------------------------------------|
A|--10---------7---------9-----------|--7------7--7----------7----------7----------|
E|-----------------------------------|---------------------------------------------|

[Solo 2]
(Gtr 1)
e|------------------------------|
B|------------------------------|
G|---------------------------12-|
D|------------------------14----|
A|------------------------------|
E|------------------------------|

e|-------------------------------------|--15b-----15b-15b---15b--15-14-12-------------|
B|-------------12-15b-15~-----------12-|----------------------------------15b---12-15-|
G|--14b--------------------------------|----------------------------------------------|
D|-------------------------------------|----------------------------------------------|
A|-------------------------------------|----------------------------------------------|
E|-------------------------------------|----------------------------------------------|

e|-------------14-15-17r-15-17p15---14-15-14------------------|
B|--17r-----17-------------------------------17p15h17p15-17---|
G|------------------------------------------------------------|
D|------------------------------------------------------------|
A|------------------------------------------------------------|
E|------------------------------------------------------------|

e|------14-15-14---------------------15--------------|
B|---------------15-------15----15b-----15r-15r------|
G|------------------16-14----------------------------|
D|---------------------------------------------------|
A|---------------------------------------------------|
E|---------------------------------------------------|

e|-----------------------------------14-15-17-19-17-15-|
B|-----------------------------15-17-------------------|
G|--14r---14r----16b--16----16-------------------------|
D|-----------------------------------------------------|
A|-----------------------------------------------------|
E|-----------------------------------------------------|

e|--17r-----15h17p15\14h15p14h15p14h15p14----14-----------------------------------------------|
B|----------------------------------------17----17p15h17p15h17p15----15-----------------------|
G|----------------------------------------------------------------16----16p14\12h14-14r12h14--|
D|--------------------------------------------------------------------------------------------|
A|--------------------------------------------------------------------------------------------|
E|--------------------------------------------------------------------------------------------|

e|-----------------------------------------------------12-|
B|--------------------------------------------------12----|
G|--14r-----12-14-12-11-12-11----------------12-14b-------|
D|----------------------------12/14~------14--------------|
A|--------------------------------------------------------|
E|--------------------------------------------------------|

e|---------15--------------------------------------------|---------------------------|
B|--15b---------15r--------------------------------------|---------------------------|
G|--------------------14r-----12h14p12\11h12p11\9h11p9\7-|--9~-----------------------|
D|-------------------------------------------------------|---------------------------|
A|-------------------------------------------------------|---------------------------|
E|-------------------------------------------------------|---------------------------|

[Guitar behind solo]
(Gtr 2)
e|--7---7-----7--------7------7-------7-------|
B|--8-----8------8-----7--7-----7---7---7---7-|
G|--9-------9-------9--9----9-----9-------9---|
D|--------------------------------------------|
A|--------------------------------------------|
E|--------------------------------------------|

e|--3--------3--------5-----5------5-----|--7---7-----7--------7------7-------7-------|
B|-----5--------5----------------7----7--|--8-----8------8-----7--7-----7---7---7---7-|
G|--------5--------5-----7-----7---------|--9-------9-------9--9----9-----9-------9---|
D|---------------------------------------|--------------------------------------------|
A|---------------------------------------|--------------------------------------------|
E|---------------------------------------|--------------------------------------------|

e|-----3--------3--------5--------5-----|-----7--------7-----7------7--------|
B|--------5--------5--------7--------7--|--------8--------8--7---------7-----|
G|--5--------5--------7--------7--------|--9--------9--------9------------9--|
D|--------------------------------------|------------------------------------|
A|--------------------------------------|------------------------------------|
E|--------------------------------------|------------------------------------|

e|-----3--------3--------5--------5-----|-----7--------7-----7------7--------|
B|--------5--------5--------7--------7--|--------8--------8--7---------7-----|
G|--5--------5--------7--------7--------|--9--------9--------9------------9--|
D|--------------------------------------|------------------------------------|
A|--------------------------------------|------------------------------------|
E|--------------------------------------|------------------------------------|

[Verse 2]
(Gtr 1) (same as verse I)
(Gtr 2) (with wah)
e|--7------7--------7--------7------|--5--------5------3--------3--------|
B|--8---------8--------8-----8------|-----7-----7---------5--------5-----|
G|--9------------9--------7--7------|--------7--7------------5--------5--|
D|----------------------------------|------------------------------------|
A|----------------------------------|------------------------------------|
E|----------------------------------|------------------------------------|

e|--7--------7------7--------7------|--5--------5------3--------3--------|
B|-----8-----8---------8-----8------|-----7-----7---------5--------5-----|
G|--------9--9------------7--7------|--------7--7------------5--------5--| x2
D|----------------------------------|------------------------------------|
A|----------------------------------|------------------------------------|
E|----------------------------------|------------------------------------|

e|--7------7-------------0---0------0---0-|
B|--8---------8-----7--7---7---7--7---7---|
G|--9------------9--0----------0----------|
D|------------------5----------5----------|
A|------------------7----------7----------|
E|----------------------------------------|

[Post-Verse 2]
(Gtr 2)
e|------0---------0--------------0---|
B|--------0---------0----------0---0-|
G|--0-------0--0------0------0-------|
D|--9----------5-----------7---------|
A|--10---------7---------9-----------|
E|-----------------------------------|

[Gtr 1]
e|--12-------12----19-------12-------|
B|-------12--------------12----------|
G|-----------------------------------|
D|-----------------------------------|
A|-----------------------------------|
E|-----------------------------------|

[Gtr 2]
e|---------7-----0---0---0-----0-----------0-------|------0---------0--------------0---|
B|-------0-----7---7---7---7-----7---7---0---0---0-|--------0---------0----------0---0-|
G|-----0-----0---------------0-----0-----------0---|--0-------0--0------0------0-------|
D|-------------------------------------5-----------|--9----------5-----------7---------|
A|--7----------------------------------------------|--10---------7---------9-----------|
E|-------------------------------------------------|-----------------------------------|

[Gtr 1]
e|--19-------12-----------12---------|
B|-------12--------12--12------------|
G|-----------------------------------|
D|-----------------------------------|
A|-----------------------------------|
E|-----------------------------------|

[Gtr 2]
e|---------7-----0---0---0-----0-----------0-------|------0---------0--------------0---|
B|-------0-----7---7---7---7-----7---7---0---0---0-|--------0---------0----------0---0-|
G|-----0-----0---------------0-----0-----------0---|--0-------0--0------0------0-------|
D|-------------------------------------5-----------|--9----------5-----------7---------|
A|--7----------------------------------------------|--10---------7---------9-----------|
E|-------------------------------------------------|-----------------------------------|

[Gtr 1]
e|--19-------12------19------12------|
B|--------12--------------12---------|
G|-----------------------------------|
D|-----------------------------------|
A|-----------------------------------|
E|-----------------------------------|

[Gtr 2]
e|---------7-----0---0---0-----0-----------0-------|------0---------0--------------0---|
B|-------0-----7---7---7---7-----7---7---0---0---0-|--------0---------0----------0---0-|
G|-----0-----0---------------0-----0-----------0---|--0-------0--0------0------0-------|
D|-------------------------------------5-----------|--9----------5-----------7---------|
A|--7----------------------------------------------|--10---------7---------9-----------|
E|-------------------------------------------------|-----------------------------------|

[Gtr 1]
e|--2----------------|--|
B|--0----------------|--|
G|--0----------------|--|
D|--2----------------|--|
A|--2----------------|--|
E|--0----------------|--|

[Gtr 2]
e|-------------------0-------|--0----------------|--|
B|--7------------------0-----|--7----------------|--|
G|--0--------------0-----0---|--0----------------|--|
D|--5------------4---------4-|--5----------------|--|
A|--7----------2-------------|--7----------------|--|
E|-----------0---------------|--0----------------|--|


************************************

| p  Pull-off
| /  Slide up
| \  Slide down
| ~  Vibrato
| b  Bend
| h  Hammer-on
| r  Release

************************************
Suggest correction
comments
print report bad tab
5 comments total. Showing first comments.
+1 reply
Carlyism 10 Nov 04, 2007 06:18 PM

The intro for "Gtr 1" is actually harmonics on the 12th & 7th fret.

+1 reply
Icaus 10 Jun 27, 2008 01:40 AM

it can still be hamoincs (natural btw) in 19th fret instead of 7th, its the same

0 reply
aarong15 10 Aug 12, 2008 11:31 AM

nice job:):)

guest
You may want to rate the tab now too:
select rating
Wanna post a correction for this tab? Suggest correction