Oops, an error
Loading. Please wait.

Strange World bass

version 3
version 3

Whole song

Interactive

505 views 1 this week
no commentswrite comment
1 2 3 4 5
x 11
add to favorites
×
Save as Personal and add changes to this tab that will be seen only by you. Learn more ›
×
You can save this tab as Personal to edit and correct it or add notes. All changes will be seen only by you. Learn more »
launch autoscroll
font size
0
reset
guitar tuner
edit
Autoscroll
slow
fast
+/-
esc
set tempo
stop
Author
Difficulty
                                Strange World                                   


                                 Iron Maiden

Steve Harris



          Intro                                                 
                                              >                 
     S    W.                  H.              W.                
G||----|-------------------|---------------|-------------------|
D||----|-------------------|---------------|-------------------|
A||----|-------------------|---------------|-------------------|
E||----|-------------------|---------------|--0----------------|


                                          >    >    >        >                 
  W.                  W.                  Q    Q    Q        W.                
-------------------|-------------------|--9---------------|-------------------|
-------------------|-------------------|-------9----------|-------------------|
-------------------|-------------------|------------7\----|-------------------|
-------------------|-------------------|------------------|--0----------------|


                        >              >                 >      >      >      
  W.                    H.             H.                Q      Q      Q      
-------------------|--7g9---------------------------|------------------------|
-------------------|-----------------7g9------------|--5g7----4g5----2g4\----|
-------------------|--------------------------------|------------------------|
-------------------|--------------------------------|------------------------|


  >                                         >              >             
  W.                  W.                    H.             H.            
-------------------|-------------------|--7g9---------------------------|
-------------------|-------------------|-----------------7g9------------|
-------------------|-------------------|--------------------------------|
--0----------------|-------------------|--------------------------------|


    >      >      >        >            >             
    Q      Q      Q        H.           H.            
------------------------|----------------------------|
--5g7----4g5----2g4\----|----------------------------|
------------------------|---------------7------------|
------------------------|--0-------------------------|


  Solo 1 Adrian Smith                                                           
  >                   >    >      >    >                                        
  H                   Q    Q      Q    Q       Q.     E  E  E  Q.     E  E  E   
--------------------------------------------|----------------------------------|
---------------------------5----5g7----9----|------------2--3--5------3--2-----|
--7-------------------7---------------------|--3------3---------------------3--|
--------------------------------------------|----------------------------------|


  Q.     E  E  E  Q    E  E  Q       Q.     E  E  E  Q.     E  E  E   
----------------------------------|----------------------------9--9--|
------------4--5--7----5--4-------|------------5--7--9---------------|
--5------5-------------------5----|--7------7---------------7--------|
----------------------------------|----------------------------------|


    E  E  E    E    E  E  E  E  E  E  E  E     Q.     E  E  E  Q.     E  E  E   
--7g9--9--9--7g9--7g9--7--------------------|----------------------------------|
--------------------------9--7--5--4-----5--|------------2--3--5------3--2-----|
--------------------------------------7-----|--3------3---------------------3--|
--------------------------------------------|----------------------------------|


  Q.     E  E  E  Q    E  E  Q       Q.     E  E  E  Q.     E    Q     
----------------------------------|-----------------------------------|
------------4--5--7----5--4-------|------------5--7--9------9s--14----|
--5------5-------------------5----|--7------7-------------------------|
----------------------------------|-----------------------------------|


      E   E   E   E   E   E   E   E   E   E  E  E   
--10g12--14--12--11--12--11--12--11----------------|
-------------------------------------14--12--9--7--|
---------------------------------------------------|
---------------------------------------------------|


  Q.     E  E  E  Q.     E  E  E     Q.     E  E  E  Q    E  E  Q     
----------------------------------|----------------------------------|
------------2--3--5------3--2-----|------------4--5--7----5--4-------|
--3------3---------------------3--|--5------5-------------------5----|
----------------------------------|----------------------------------|


  Q.     E  E  E  Q.     E  E  E       E  E  E    E    E  E  E  E  E  E  Q     
----------------------------9--9--|--7g9--9--9--7g9--7g9--7-------------------|
------------5--7--9---------------|--------------------------9--7--5-----7----|
--7------7---------------7--------|-----------------------------------7-------|
----------------------------------|-------------------------------------------|


  Q.     E  E  E  Q.     E  E  E     Q.     E  E  E    Q      Q      Q     
----------------------------------|---------------------------------------|
------------2--3--5------3--2-----|------------4--5--5g7----4g5----2g4----|
--3------3---------------------3--|--5------5-----------------------------|
----------------------------------|---------------------------------------|


    Q.     E  E  E  Q.     E  E  E       Q.     E  E  E    Q      Q      Q     
------------------------------------|-----------------------------------------|
------------------------------------|-----------------------------------------|
--5g7------7--7--7--7------5--7--5--|--5g7------7--7--7--5g7----3g5-----------|
------------------------------------|----------------------------------5g7----|


  Verso Riff                                                           
  Q.         E  E  E  H        E  E     H        Q    Q.     E  E  E   
-------------------------------------|--------------------------------|
-------------------------------------|--------------------------------|
--7----------L--7--5--7--------7--5--|--------------------------2--3--|
-------------------------------------|--3--------3----3------3--------|


  H        E  E  H        Q       H        Q    Q.     E  Q     
-------------------------------|-------------------------------|
-------------------------------|-------------------------------|
--5--------5--5--5--------5----|--3--------3----3--------------|
-------------------------------|-----------------------3--5----|


  Q.     E  E  E  H        E  E     H        Q    Q.     E  Q     
---------------------------------|-------------------------------|
---------------------------------|----------------5------5--4----|
--7------L--7--5--7--------7--5--|-------------------------------|
---------------------------------|--3--------3-------------------|


  Q.     E  E  E  Q.     E  E  E     H        Q    Q      E  E  Q     
----------------------------------|----------------------------------|
------------------5------5--4-----|--------------------------4--5----|
--5------5--5--5---------------5--|--3--------3----3----3g5----------|
----------------------------------|----------------------------------|


  Q.     E  E  E    E  E  E  E  Q       H        Q    Q.     E  E  E   
-------------------------------------|--------------------------------|
------------5-----5g7--5-------------|--------------------------------|
--7------L-----7----------7--5-------|--------------------------2--3--|
--------------------------------7----|--3--------3----3------3--------|


  H        E  E  H        Q       H        Q    Q    Q    Q     
-------------------------------|-------------------------------|
-------------------------------|-------------------------------|
--5--------5--5--5--------5----|--3--------3----3---------2----|
-------------------------------|---------------------3---------|


  Q.     E  E  E  H        E  E     Q.     E  Q    Q.     E  E  E   
---------------------------------|---------------------------------|
---------------------------------|---------------------------------|
--7------L--7--5--7--------7--5--|---------------------------2--3--|
---------------------------------|--3------3--3----3------3--------|


  Q.     E  E  E  Q    E  E  Q       H        Q    Q    Q    Q     
----------------------------------|-------------------------------|
-----------------------5--4-------|-------------------------------|
--5------5--5--5--5----------5----|--3--------3----3--------------|
----------------------------------|---------------------5----3----|


  Break                                                       
  Q.     E  E  E  H        Q       W                H         
--------------------------------|----------------------------|
--------------------------------|----------------------------|
--7------7--7--7--7--------7----|--7-------------------------|
--------------------------------|--0-------------------------|


  Riff A                                                                    
                                      >                                     
  W.                  H.              W.                  W.                
-------------------|---------------|-------------------|-------------------|
-------------------|---------------|-------------------|-------------------|
-------------------|---------------|-------------------|-------------------|
-------------------|---------------|--0----------------|-------------------|


                      >    >    >        >                                     
  W.                  Q    Q    Q        W.                  W.                
-------------------|--9---------------|-------------------|-------------------|
-------------------|-------9----------|-------------------|-------------------|
-------------------|------------7\----|-------------------|-------------------|
-------------------|------------------|--0----------------|-------------------|


    >              >                 >      >      >        >                 
    H.             H.                Q      Q      Q        W.                
--7g9---------------------------|------------------------|-------------------|
-----------------7g9------------|--5g7----4g5----2g4\----|-------------------|
--------------------------------|------------------------|-------------------|
--------------------------------|------------------------|--0----------------|


                        >              >                 >      >      >      
  W.                    H.             H.                Q      Q      Q      
-------------------|--7g9---------------------------|------------------------|
-------------------|-----------------7g9------------|--5g7----4g5----2g4\----|
-------------------|--------------------------------|------------------------|
-------------------|--------------------------------|------------------------|


                               Solo 2 Dave Murray                         
  >            >               >                  >    >  >  >  >  >  >   
  H.           H.              H                  Q    E  E  E  E  E  E   
----------------------------|--------------------------4-----------------|
----------------------------|-----------------------------7--5--4--------|
---------------7------------|--7------------------7----------------7--5--|
--0-------------------------|--------------------------------------------|


  Q.     E  E  E  E  E  E  S  S E  E     Q.     E  E  E  E.  S  E  E  E  E   
------------------------5-------------|-------------------------------------|
------------2-----3--5-----3s-5-2-----|------------4-----5---5s-7--5--4-----|
--3------3-----3-------------------3--|--5------5-----5------------------5--|
--------------------------------------|-------------------------------------|


  Q.     E  E  E  Q.     E  E  E       E  E  E    E    E  E  E  E  E  E  E  E   
----------------------------9--9--|--7g9--9--9--7g9--7g9--7--------------------|
------------5--7--9---------------|--------------------------9--7--5-----7--5--|
--7------7---------------7--------|-----------------------------------7--------|
----------------------------------|--------------------------------------------|


  Q.     E  Q    Q    E  E  E  E     Q.     E  E  E  Q      E    E    E  E   
----------------------------------|-----------------------------------------|
------------2---------2--3--5--7--|------------4--5--7----5g7--4g5--2g4-----|
--3------3-------5----------------|--5------5----------------------------5--|
----------------------------------|-----------------------------------------|


  Q.     E  E  E  Q.     E    Q     
-----------------------------------|
------------5--7--9------9s--14----|
--7------7-------------------------|
-----------------------------------|


   E   E   E   E   E   E   E   E   E   E  E  E   
--14--12--11------12--11------------------------|
--------------12----------14--12--14--12--9--7--|
------------------------------------------------|
------------------------------------------------|


  Q.     E  E  E  Q.     S  S E  E     Q.     E  E  E  Q    Q    E  E   
------------------------------------|----------------------------------|
------------2--3--5------3s-5-2-----|------------4-----7----5----4-----|
--3------3-----------------------3--|--5------5-----5---------------5--|
------------------------------------|----------------------------------|


  Q.     E  E  E  Q.     E  E  E       E  E  E    E    E  E  E  E  E  E  E  E   
----------------------------9--9--|--7g9--9--9--7g9--7g9--7--------------------|
------------5--7--9---------------|--------------------------9--7--5-----7--5--|
--7------7---------------7--------|-----------------------------------7--------|
----------------------------------|--------------------------------------------|


  Q.     E  E  E    Q.     E  E  E     Q.     E  E  E  Q    Q    Q     
------------------------------------|---------------------------------|
------------2--3--3g5------3--2-----|------------4-----7----5----4----|
--3------3-----------------------3--|--5------5-----5-----------------|
------------------------------------|---------------------------------|


  H        Q    Q.     E  E  E     Q.     E  Q    Q    Q    Q     
--------------------------------|--------------------------------|
--------------------------------|--------------------------------|
--7--------7----7------5--7--5--|--7------7--7----7----5---------|
--------------------------------|---------------------------5----|


  Verso Riff                                                           
  Q.         E  E  E  H        E  E     H        Q    Q.     E  E  E   
-------------------------------------|--------------------------------|
-------------------------------------|--------------------------------|
--7----------L--7--5--7--------7--5--|--------------------------2--3--|
-------------------------------------|--3--------3----3------3--------|


  H        E  E  Q    E  E  Q       H        Q    Q    E  E  Q     
---------------------------------|--------------------------------|
----------------------5--4-------|--------------------------------|
--5--------5--5--5----------5----|--3--------3----3---------------|
---------------------------------|---------------------5--3--0----|


  Q.     E  E  E  H        E  E     H        Q    Q.     E  Q     
---------------------------------|-------------------------------|
---------------------------------|----------------5------5--4----|
--7------L--7--5--7--------7--5--|-------------------------------|
---------------------------------|--3--------3-------------------|


  Q.     E  E  E  Q.     E  Q       H        Q    Q    S  S E  E  E   
---------------------------------|-----------------------------------|
------------------5------5--4----|-----------------------------4--5--|
--5------5--5--5-----------------|--3--------3----3----3s-5-5--------|
---------------------------------|-----------------------------------|


  Q.     E  E  E    E  E  E  E  Q       H        Q    Q.     E  E  E   
-------------------------------------|--------------------------------|
------------5-----5g7--5-------------|--------------------------------|
--7------L-----7----------7--5-------|--------------------------2--3--|
--------------------------------7----|--3--------3----3------3--------|


  H        Q    Q    E  E  Q       H        Q    Q    Q    Q     
--------------------------------|-------------------------------|
---------------------5--4-------|-------------------------------|
--5--------5----5----------5----|--3--------3----3---------2----|
--------------------------------|---------------------3---------|


  Q.     E  E  E  H        E  E     Q.     E  Q    Q.     E  E  E   
---------------------------------|---------------------------------|
---------------------------------|---------------------------------|
--7------L--7--5--7--------7--5--|---------------------------2--3--|
---------------------------------|--3------3--3----3------3--------|


  Q.     E  E  E  Q    E  E  Q       H        Q    Q    Q    Q     
----------------------------------|-------------------------------|
-----------------------5--4-------|-------------------------------|
--5------5--5--5--5----------5----|--3--------3----3--------------|
----------------------------------|---------------------5----3----|


  Break                                                      
  H        E  E  H        Q       W                H         
-------------------------------|----------------------------|
-------------------------------|----------------------------|
--7--------7--7--7--------7----|--7-------------------------|
-------------------------------|--0-------------------------|


  Riff A                                                                    
                                      >                                     
  W.                  H.              W.                  W.                
-------------------|---------------|-------------------|-------------------|
-------------------|---------------|-------------------|-------------------|
-------------------|---------------|-------------------|-------------------|
-------------------|---------------|--0----------------|-------------------|


                      >    >    >        >                                     
  W.                  Q    Q    Q        W.                  W.                
-------------------|--9---------------|-------------------|-------------------|
-------------------|-------9----------|-------------------|-------------------|
-------------------|------------7\----|-------------------|-------------------|
-------------------|------------------|--0----------------|-------------------|


    >              >                 >      >      >        >                 
    H.             H.                Q      Q      Q        W.                
--7g9---------------------------|------------------------|-------------------|
-----------------7g9------------|--5g7----4g5----2g4\----|-------------------|
--------------------------------|------------------------|-------------------|
--------------------------------|------------------------|--0----------------|


                      Outro                                        
                      >            >               >    >    >     
  W.                  H.           H.              Q    Q    Q     
-------------------|----------------------------|--7---------7----|
-------------------|---------------7------------|-------9---------|
-------------------|--7-------------------------|-----------------|
-------------------|----------------------------|-----------------|


    >                                                         
    W.                  W.                  W.                
--7g9----------------|-------------------|-------------------|
---------------------|-------------------|-------------------|
---------------------|-------------------|--7----------------|
---------------------|-------------------|--0----------------|


  W.                 
-------------------||
-------------------||
--L----------------||
--L----------------||




Duration Legend
---------------
W - whole
H - half
Q - quarter
E - 8th
S - 16th
T - 32nd
X - 64th
. - note dotted
|-n-|  - n-tuplets


Tablature Legend
----------------
L - tied note
x - dead note
g - grace note
(n) - ghost note
> - accentuded note
NH - natural harmonic
AH - artificial harmonic
TH - tapped harmonic
SH - semi harmonic
PH - pitch harmonic
h - hammer on
p - pull off
b - bend
br - bendRelease
pb - preBend
pbr - preBendRelease
brb - bendReleaseBend
\n/ - tremolo bar dip
\n - tremolo bar dive
-/n - tremolo bar Release up
/n\ - tremolo bar inverted dip
/n - tremolo bar return
-\n - tremolo bar Release down
S - shift slide
s - legato slide
/ -  slide into from below or out of upwards
\ -  slide into from above or out of downwards
~ - vibrato
W - wide vibrato
tr - trill
TP - tremolo picking
T - tapping
S - slap
P - pop
< - fade in
^ - brush up
v - brush down

            
            
Suggest correction
Creating personal tab
Creating personal tab
You can edit any tab online and save it as your Personal.

You can edit, replace or remove any tab part or add personal notes – all changes will be seen only by you.

Personal tabs can be accessed anytime from any device, even offline.
Learn more »
comments
print report bad tab
guest
You may want to rate the tab now too:
select rating
Wanna post a correction for this tab? Suggest correction